PrimaNota.ru - самый крупный в мире бесплатный архив песенных текстов, аккордов, табулатур и нот


Emily Jane White - Two Shots To The Head - таба, видео

Регистрация Запомнить меня
Войти через:  Facebook Google Twitter Vk Yandex Mail.ru

Emily Jane White - Two Shots To The Head - таба, видео

Печатать
Просмотров: 116
-------------------------------------------------------------------------
TWO SHOTS TO THE HEAD – Emily Jane White
-------------------------------------------------------------------------
Tabbed by: Kengus

Standard tuning

I think this is quite accurate, at least sounds ok to me. One of those
finger-picking exercises this one - nice. Pretty straightforward once you
get the pattern and rhythm to flow. Have fun.

INTRO (repeat x2)
e|-------------------------------------------------------------------|
B|-------0-------0-------0-------0-------0-------0--------0-------0--|
G|---0-------0-------0-------0-------0-------0--------0-------0------|
D|-----5-------5-------7-------7-------5-------5--------0-------0----|
A|-7-------7-------5-------5-------3-------3-------------------------|
E|--------------------------------------------------3-------5--------|

VERSE (repeat x4)
   Em                              D6sus4
e|-------------------------------------------------------------------|
B|-------0-------0-------0-------0-------0-------0-------0-------0---|
G|---0-------0-------0-------0-------0-------0-------0-------0-------|
D|-----5-------5-------5-------5-------7-------7-------7-------7-----|
A|-7---------------7---------------5---------------5-----------------|
E|-------------------------------------------------------------------|
  Cmaj7-3                          G               A9sus4
e|-------------------------------------------------------------------|
B|-------0-------0-------0-------0-------0-------0-------0-------0---|
G|---0-------0-------0-------0-------0-------0-------0-------0-------|
D|-----5-------5-------5-------5-------0-------0-------0-------0-----|
A|-3---------------3-------------------------------------------------|
E|---------------------------------3-------3/------5-------5---------|

Em                  D6sus4                   Cmaj7-3
       I don't wanna break my back, you seem so funny when, 
               G    A9sus4
nothin's goin' on,
Em                  D6sus4                    Cmaj7-3
       I know you'll drive away, out of here I know you will,
       G    A9sus4
Always be...here
Em                    D6sus4         Cmaj7-3
       Cause I really loved you, you know I did, 
G                 A9sus4
told you over and over again
Em                  D6sus4                   Cmaj7-3
      I know you'll drive away, out of here I know you will, 
       G    A9sus4
always be...here

“PRE-CHORUS”
e|-------------------------------------------------------------------|
B|-------0-------0-------0-------0-------0-------0-------0-------0---|
G|---0-------0-------0-------0-------0-------0-------0-------0-------|
D|-----5-------5-------5-------5-------5-------5-------5-------0-----|
A|-7-------7-------7-------7-------7-------7-------7-------7---------|
E|-------------------------------------------------------------------|

CHORUS (repeat x8)
   Am              Em              D6sus4          Cmaj7-3
e|-------------------------------------------------------------------|
B|-------1-------1-------0-------0-------0-------0-------0-------0---|
G|---2-------2-------0-------0-------0-------0-------0-------0-------|
D|-----2-------2-------5-------5-------3-------3-------5-------5-----|
A|-0-------0-------7-------7-------5-------5-------3-------3---------|
E|-------------------------------------------------------------------|

Am               Em    D6sus4     Cmaj7-3         Am  Em D6sus4 Cmaj7-3  
Two shots to the head, now you're runnin' runnin' fast
Am               Em    D6sus4     Cmaj7-3         Am  Em D6sus4 Cmaj7-3
Two shots to the head, now you're runnin' runnin' fast
Am        Em      D6sus4       Cmaj7-3
   Cast a shadow on your grave, 
Am          Em      D6sus4       Cmaj7-3
   hold the flowers to your name,
Am        Em      D6sus4       Cmaj7-3
   Cast a shadow on your grave, 
Am          Em      D6sus4       Cmaj7-3      D6sus4
   hold the flowers to your name.

VERSE (repeat first verse)

INTRO (repeat intro)

“PRE-CHORUS” (repeat “pre-chorus”)

CHORUS (repeat chorus, last line goes Am+Em+D6sus4+Cmaj7-+D6sus4+Cmaj7)
========================================================================
Добавлено: 08.07.2012
Другие материалы по этой песне:
  • Аккорды и текст

Страница создана 08.07.2012
http://primanota.ru/emily-jane-white/two-shots-to-the-head-chords.htm
Привет, Гость.
Предлагаем пройти революционный курс по гитаре.
Подарок от PrimaNota.Ru, забирай!