PrimaNota.ru - самый крупный в мире бесплатный архив песенных текстов, аккордов, табулатур и нот


Emily Barker - Nostalgia - таба, видео

Регистрация Запомнить меня
Войти через:  Facebook Google Twitter Vk Yandex Mail.ru

Emily Barker - Nostalgia - таба, видео

Печатать
Просмотров: 118
Уроки эстрадного вокала в Санкт-Петербурге
EMILY BARKER - NOSTALGIA

CAPO 4th fret. all relative to capo.
e|------------------------------|
B|---0~--3~--5~--5~--3~--3~--5~-|
G|------------------------------|
D|------------------------------|
A|------------------------------|
E|------------------------------|
 INTRO/VERSE
e|---------------------------|----------------0----------|
B|-0-----3p0-------0---------|-0-----3p0-------------0---|
G|-------------0-------------|-------------0------0------|
D|----2------2-------2-----2-|----2------2------2------0-|
A|---------------------------|---------------------------|
E|-0-----0-------0-----0h2---|-0-----0------0------0-----|
  Em
   Tram wires,               Cross Melbourne skies,
e|-0--------0----------------|---------------------------||
B|--------------3---------1p0|-0-----3p0-------0---------||
G|------0------------0-------|-------------0-------------||*
D|-----0------0-----0-----0--|----2------2-------2-----2-||*
A|-3------3-----3------0-----|---------------------------||
E|---------------------------|-0-----0-------0-----0h2---||
  CM                          Em
   Cut,      my red heart in two                     My...
                    CHORUS
e|--------------|--------------|--------------|--------------|--------------|
B|---0-------0--|-0--------0---|-3--------3---|-0-------0----|-1-------1----|
G|--------0-----|------0-------|------2-------|-----0--------|-------0------|
D|------2-----0-|-----0------0-|-----0------0-|---2-------0--|---0h2--------|
A|--------------|--------------|-0------0-----|--------------|-3---------0--|
E|---0-----0----|-3------3-----|--------------|-0-----0------|--------------|
                 GM             DM             Em             CM
  ...         Oh, whisper me words,       in the shape of a bay
e|--------------|--------------|--------------|--------------|
B|-0--------0---|-3--------3---|-0--------0---|-0--------0---|
G|------0-------|------2-------|-----0--------|-----0--------|
D|-----0------0-|-----0------0-|---2--------2-|---2--------2-| *return to verse.
A|--------------|-0------0-----|--------------|--------------|
E|-3------3-----|--------------|-0------0-----|-0------0-----|
  GM             DM             Em
Shelter my love   from         the wind and the waves
  CODA
e|--------------|                         1st e|--------------|--------------|
B|-1---------1--|                             B|-0--------0---|-0--------0---|
G|------0-------|                             G|-----0--------|-----0--------|
D|----2-------2-| Repeat X6         then      D|---2--------2-|---2--------0-|
A|-3-------3----|                             A|--------------|--------------|
E|--------------|                             E|-0------0-----|-0------0-----|
   Only the sunset knows...                   ... For the fleeting
                                                      Back to CODA then 2nd
   e|--------------|--------------|--------------|-2--------2---|
   B|-0--------0---|-0--------3---|-3--------3---|-----1--------|
   G|-----0--------|-----0--------|-----2--------|---2--------2-|
 2nD|---2--------2-|---0--------0-|---0--------0-|-4------4-----|
   A|--------------|--------------|-0------0-----|--------------|
   E|-0------0-----|-3------3-----|--------------|--------------|
  When held by a hand,     like the aura,           of    nostal-
 |---------------------------|
 |-0-----3p0-------0---------|
 |-------------0-------------|
 |----2------2-------2-----2-|.... REPEAT INTRO.
 |---------------------------|
 |-0-----0-------0-----0h2---|
  _________gia..
Добавлено: 21.09.2013
Другие материалы по этой песне:

Страница создана 21.09.2013
http://primanota.ru/emily-barker/nostalgia-chords.htm
Привет, Гость.
Предлагаем пройти революционный курс по гитаре.
Подарок от PrimaNota.Ru, забирай!