PrimaNota.ru - самый крупный в мире бесплатный архив песенных текстов, аккордов, табулатур и нот


Emily And The Woods - More Like Me - таба, видео

Регистрация Запомнить меня
Войти через:  Facebook Google Twitter Vk Yandex Mail.ru

Emily And The Woods - More Like Me - таба, видео

Печатать
Просмотров: 59
Уроки эстрадного вокала в Санкт-Петербурге
-------------------------------------------------------------------------------
                             More Like Me - Emily and the Woods
-------------------------------------------------------------------------------

This tab is based on a live performance: https://www.youtube.com/watch?v=2CxX1mpl3E0


Tuning: DADF#AD
Capo 4

/   slide up
\   slide down
h   hammer-on

Emily picks the base notes before strumming each chord throughout the whole song, except 
for when she's sliding to a different chord. For the intro and the verses I already added 
the base notes in the tabs. It's the same rhythm over and over so it's easy to figure out!


Intro
D |---0-----0-----0-----0--------|
A |---0-----0-----0-----0--------|
F#|---0-----0-----0-----0--------|    x2
D |---5-----5-----0-----0--------|
A |---5-----5-----0-----0--------|
D |--h5---5-5---0-0---0-0--------|


Verse 1
D |---0-----0-----0-----0--------|
A |---0-----0-----0-----0--------|
F#|---0-----0-----0-----0--------|    x4
D |---5-----5-----0-----0--------|
A |---5-----5-----0-----0--------|
D |--h5---5-5---0-0---0-0--------|

Don't want to be confusing
Don't want to be misread
Don't want to make you mr. blue
Hang around on your head


Verse 2
D |---0-----0-----0-----0--------|
A |---0-----0-----0-----0--------|
F#|---0-----0-----0-----0--------|    x4
D |---5-----5-----0-----0--------|
A |---5-----5-----0-----0--------|
D |--h5---5-5---0-0---0-0--------|

She can go home, wash her face
Wash her hands of you
I'm not that kind of girl
Its not the kind of thing I would do


Chorus
D |---0---0---0---0--------|
A |---0---0---0---0--------|
F#|---0---0---0---0--------|    x3    
D |---5-/-7---7-\-5--------|
A |---5-/-7---7-\-5--------|
D |---0---0---7-\-5--------|

Wish I felt more
Wish I felt more like me
Wish I felt more, more like me, oh
Wish I felt more, more like me
Wish I felt more, more like me


Bridge
D |---0---0---0---0---0---0---0--|
A |---0---0---0---0---0---0---0--|
F#|---0---0---0---0---0---0---0--|    
D |---5-/-7-\-5-/-7-/-9---7-\-5--|
A |---5-/-7-\-5-/-7-/-9---7-\-5--|
D |---5-/-7-\-5-/-7-/-9---7-\-5--|

You hate it
You hold him
You touch
Don't feel a thing
You want
So much
It makes your own heart sting
You tell him
Holding him is the best feeling


Chorus
D |---0---0---0---0--------|
A |---0---0---0---0--------|
F#|---0---0---0---0--------|    x7   
D |---5-/-7---7-\-5--------|
A |---5-/-7---7-\-5--------|
D |---0---0---7-\-5--------|

but you wish you felt more
wish you felt more like you
wish you felt more, more like you
wish you felt more, (wish you felt)
wish you felt more like you
More like you..


End on strumming the open notes once

Добавлено: 29.12.2015
Другие материалы по этой песне:
  • Аккорды и текст

Страница создана 29.12.2015
http://primanota.ru/emily-and-the-woods/more-like-me-chords.htm
Привет, Гость.
Предлагаем пройти революционный курс по гитаре.
Подарок от PrimaNota.Ru, забирай!