PrimaNota.ru - самый крупный в мире бесплатный архив песенных текстов, аккордов, табулатур и нот


Emiliana Torrini - Tuna Fish - текст песни, таба, видео

Регистрация Запомнить меня
Войти через:  Facebook Google Twitter Vk Yandex Mail.ru

Emiliana Torrini - Tuna Fish - текст песни, таба, видео

Печатать
Просмотров: 146
Авторы музыки: Eg White, Siggi Baldursson, Emilíana Torrini




Date: Sun, 9 Apr 2006 17:33:46 -0500
From: Gandhi 
Subject: t/torrini_emiliana/tuna_fish.tab

Emiliana Torrini
Tuna Fish
from album Love In the Time of Science
 
tab by Gandhi
This file is all my own work.
 
Common time (4/4)
 
Intro (synth/studio version)
|----------|---------|----------|---------|--|
|-2~~~~~~~-|---------|-2~~~~~~~-|---------|--|
|-2~~~~~~~-|---------|-2~~~~~~~-|---------|--|
|-4~~~~~~~-|---------|-4~~~~~~~-|---------|--|
|-4~~~~~~~-|---------|-4~~~~~~~-|---------|--|
|-2~~~~~~~-|---------|-2~~~~~~~-|---------|--|
 
|-----|-----|-----|-----|
|-2-2-|-2~~-|-----|-----|
|-2-1-|-1~~-|-6-8-|-8~~-|
|-4---|-----|-----|-----| loop last 4 bars
|-4---|-----|-----|-4~~-|
|-2-1-|-0~~-|-5-7-|-----|
 

Intro (acoustic guitar version)
|----------|---------|----------|---------|--|
|-5~~~~~~~-|---------|-5~~~~~~~-|---------|--|
|-4~~~~~~~-|---------|-4~~~~~~~-|---------|--|
|-6~~~~~~~-|---------|-6~~~~~~~-|---------|--|
|-4~~~~~~~-|---------|-4~~~~~~~-|---------|--|
|----------|---------|----------|---------|--|
 

Verse/chorus - Acoustic guitar
(listen to the acoustic version for the rhythm)
|---------------------|-------------------------|-------------------------|
|---------------------|-------------------5-----|-----5-------------5-----|
|---------------------|-------------6p4-----4h6-|-----6-------6p4-----4h6-|
|-----4-------4---4---|-----4-----6-----6-------|---6---6---------6-------|
|---4---4---4---4---4-|---4---4-4---------------|-----------6-------------|
|-2-------1-----------|-0-----------------------|-5-------4---------------|
 
|---------------------|
|-----------5---------|
|-----6p4-----4h6-----|
|---6-----6-------6---| loop last 4 bars
|-4-------------------|
|---------------------|
 
You can also do the base line, doubling the octave in rhythm
|-----|-----|-----|-----|
|-----|-----|-----|-----|
|-----|---6-|-----|-6---|
|-4-3-|-2---|-7-6-|-----|
|-----|---4-|-----|-4---|
|-2-1-|-0---|-5-4-|-----|
 

Electric guitar
(listen to Les Eurockeennes de Belfort concert at 24:42 for the
rhythm)
|-----|        |-----|    |-----|         |-----------------|
|-----|        |-----|    |-----|         |-----------------|
|-----| repeat,|-----| or |-----| end     |-6-6-6-6-6-6-6~~-|
|-----| then   |-2h4-|    |-1h2-| pattern |-cresc.----------|
|-2h4-| play   |-----|    |-----| with:   |-----------------|
|-----|        |-----|    |-----|         |-----------------|


Добавлено: 05.02.2014
Другие материалы по этой песне:
  • Аккорды и текст

Страница создана 07.04.2012
http://primanota.ru/emiliana-torrini/tuna-fish-chords.htm
Привет, Гость.
Предлагаем пройти революционный курс по гитаре.
Подарок от PrimaNota.Ru, забирай!