PrimaNota.ru - самый крупный в мире бесплатный архив песенных текстов, аккордов, табулатур и нот


Emiliana Torrini - Summerbreeze - текст песни, таба, видео

Регистрация Запомнить меня
Войти через:  Facebook Google Twitter Vk Yandex Mail.ru

Emiliana Torrini - Summerbreeze - текст песни, таба, видео

Печатать
Просмотров: 120
Авторы музыки: Mark Abis

===============================================================================

Artist: Emiliana Torrini
Song: Summerbreeze
Album: Love in the Time of Science (1999)

Tuning: E A D G B e (Capo 3)

-------------------------------------------------------------------------------

00:00 - 00:52

e|--------------------|--------------------|-------------------|---------------|
B|-----------2--------|-----------3--------|--------------3----|--2}-----------|
G|--------2-----2-----|--------2-----2-----|-----------0-------|--0}-0---------|
D|-----2-----------2--|-----4-----------4--|--------4----------|--2}----2------|
A|--0-----------------|--------------------|-----2-------------|---------------|
E|--------------------|--2-----------------|--0----------------|--0}-----------|

It might have been a while
Since you've been loved
Like you should be loved

It might have been a while
Since you've been kissed
Like you should be kissed 

00:52 - 01:09

e|--------------------|--------------------|--------------------|
B|-----------2--------|-----------3--------|-----------5--------|
G|--------2-----2-----|--------2-----2-----|--------6-----6-----|
D|-----2-----------2--|-----4-----------4--|-----6-----------6--|
A|--0-----------------|--------------------|--4-----------------|
E|--------------------|--2-----------------|--------------------|

e|--------------------|--------------------|
B|-----------3--------|--5p-3--------------|
G|--------2-----2-----|--------2-----------|
D|-----4-----------4--|--------------------|
A|--------------------|--------------------|
E|--2-----------------|--------------------|

e|--------------------|--0-----------------|--------------0----|---------------|
B|--------------1-----|-----1-----------1--|-------------------|--3}-----------|
G|--------0--------0--|--------0-----0-----|-----------0-------|--0}-----------|
D|-----3-----3--------|-----------3--------|--------4----------|--2}-----------|
A|--------------------|--------------------|-----2-------------|---------------|
E|--1-----------------|--------------------|--0----------------|--0}-----------|

In tender loving arms
Might be something you miss 

01:09 - 01:23

e|--------------------|--------------------|-------------------|---------------|
B|-----------2--------|-----------3--------|--------------3----|--2}-----------|
G|--------2-----2-----|--------2-----2-----|-----------0-------|--0}-0---------|
D|-----2-----------2--|-----4-----------4--|--------4----------|--2}----2------|
A|--0-----------------|--------------------|-----2-------------|---------------|
E|--------------------|--2-----------------|--0----------------|--0}-----------|

Well summerbreeze is blowing through your window
And summerbreeze is blowing through your hair

01:23 - 01:37

e|--------------------|--------------------|--------------------|
B|-----------2--------|-----------3--------|-----------5--------|
G|--------2-----2-----|--------2-----2-----|--------6-----6-----|
D|-----2-----------2--|-----4-----------4--|-----6-----------6--|
A|--0-----------------|--------------------|--4-----------------|
E|--------------------|--2-----------------|--------------------|

e|--------------------|--------------------|
B|-----------3--------|--5p-3--------------|
G|--------2-----2-----|--------2-----------|
D|-----4-----------4--|--------------------|
A|--------------------|--------------------|
E|--2-----------------|--------------------|

e|--------------------|-------------------|
B|-----------1--------|--------------3----|
G|--------0-----0-----|-----------0-------|
D|-----3-----------3--|--------4----------|
A|--------------------|-----2-------------|
E|--1-----------------|--0----------------|

And something in your eyes that you cannot disguise
Don't tell me it ain't there

01:37 - 02:14

e|--------------------|--------------------|-------------------|---------------|
B|-----------2--------|-----------3--------|--------------3----|--2}-----------|
G|--------2-----2-----|--------2-----2-----|-----------0-------|--0}-0---------|
D|-----2-----------2--|-----4-----------4--|--------4----------|--2}----2------|
A|--0-----------------|--------------------|-----2-------------|---------------|
E|--------------------|--2-----------------|--0----------------|--0}-----------|

It might have been a while
Since you've been loved
By one who really loves you

It might have been a while
Since you could trust
That someone really cares 

02:14 - 02:31

e|--------------------|--------------------|--------------------|
B|-----------2--------|-----------3--------|-----------5--------|
G|--------2-----2-----|--------2-----2-----|--------6-----6-----|
D|-----2-----------2--|-----4-----------4--|-----6-----------6--|
A|--0-----------------|--------------------|--4-----------------|
E|--------------------|--2-----------------|--------------------|

e|--------------------|--------------------|
B|-----------3--------|--5p-3--------------|
G|--------2-----2-----|--------2-----------|
D|-----4-----------4--|--------------------|
A|--------------------|--------------------|
E|--2-----------------|--------------------|

e|--------------------|--0-----------------|--------------0----|---------------|
B|--------------1-----|-----1-----------1--|-------------------|--3}-----------|
G|--------0--------0--|--------0-----0-----|-----------0-------|--0}-----------|
D|-----3-----3--------|-----------3--------|--------4----------|--2}-----------|
A|--------------------|--------------------|-----2-------------|---------------|
E|--1-----------------|--------------------|--0----------------|--0}-----------|

When people like us
Meant to go 'round in pairs 

02:31 - 02:46

e|--------------------|--------------------|-------------------|---------------|
B|-----------2--------|-----------3--------|--------------3----|--2}-----------|
G|--------2-----2-----|--------2-----2-----|-----------0-------|--0}-0---------|
D|-----2-----------2--|-----4-----------4--|--------4----------|--2}----2------|
A|--0-----------------|--------------------|-----2-------------|---------------|
E|--------------------|--2-----------------|--0----------------|--0}-----------|

Well summerbreeze is blowing through your window
And summerbreeze is blowing through your hair

02:46 - 03:00

e|--------------------|--------------------|--------------------|
B|-----------2--------|-----------3--------|-----------5--------|
G|--------2-----2-----|--------2-----2-----|--------6-----6-----|
D|-----2-----------2--|-----4-----------4--|-----6-----------6--|
A|--0-----------------|--------------------|--4-----------------|
E|--------------------|--2-----------------|--------------------|

e|--------------------|--------------------|
B|-----------3--------|--5p-3--------------|
G|--------2-----2-----|--------2-----------|
D|-----4-----------4--|--------------------|
A|--------------------|--------------------|
E|--2-----------------|--------------------|

e|--------------------|-------------------|
B|-----------1--------|--------------3----|
G|--------0-----0-----|-----------0-------|
D|-----3-----------3--|--------4----------|
A|--------------------|-----2-------------|
E|--1-----------------|--0----------------|

Something in your eyes that took me by surprise
Don't tell me that it ain't there

03:00 - ...

e|--------------------|--------------------|-------------------|---------------|
B|-----------2--------|-----------3--------|--------------3----|--2}-----------|
G|--------2-----2-----|--------2-----2-----|-----------0-------|--0}-0---------|
D|-----2-----------2--|-----4-----------4--|--------4----------|--2}----2------|
A|--0-----------------|--------------------|-----2-------------|---------------|
E|--------------------|--2-----------------|--0----------------|--0}-----------|

***lyrics from alwaysontherun.net***

===============================================================================
Добавлено: 17.05.2012
Другие материалы по этой песне:

Страница создана 17.05.2012
http://primanota.ru/emiliana-torrini/summerbreeze-chords.htm
Привет, Гость.
Предлагаем пройти революционный курс по гитаре.
Подарок от PrimaNota.Ru, забирай!