PrimaNota.ru - самый крупный в мире бесплатный архив песенных текстов, аккордов, табулатур и нот


Emiliana Torrini - Serenade - текст песни, таба, видео

Регистрация Запомнить меня
Войти через:  Facebook Google Twitter Vk Yandex Mail.ru

Emiliana Torrini - Serenade - текст песни, таба, видео

Печатать
Просмотров: 342
"Serenade" (live at Paradisco-Amsterdam/www.fabchannel.com)

Song by: Emiliana Torrini

Standart tuning with capo on 1st fret


I really love this song, and its my favourite song of Emiliana. She performed it in
Amsterdam. This is my first tab and I didn't had much time to do it. That's why I think
the ending of the 1st chorus is not 100% right, but I'm sure the rest is alright. I'm
also working on a Guitar Pro File. stay tuned and go to www.mysongbook.com . Now, have
fun.


INTRO (2x) Verse (4x): ("New world forming...") (also Chorus 2)
   1 + 2 + 3 +   1 + 2 + 3 +   1 + 2 + 3 +   1 + 2 + 3 +
E--------3p2---|-------3p2---|-------------|-------------|
B------5-----5-|-----5-----5-|-------2-----|-3p2-3p2-3p2-| 
G----4---------|---4---------|-----2---2---|-2---2---2---| 
D--2-----------|-------------|---2-------2-|-2---2---2---| 
A--------------|-5-----------|-------------|-------------|
e--------------|-------------|-3-----------|-5---5---5---|

Chorus 1:("For the dark finds ways of being...")
(3x)
   1 + 2 + 3 +   1 + 2 + 3 +   1 + 2 + 3 +   1 + 2 + 3 +
E--------------|-------------|-------------|-5p2---------|
B--------3-----|-------2-----|-------3-----|-------------| 
G------2-------|-----2-------|-----4-------|-------------| 
D----4---------|---4---------|---4---------|-4---4-------| 
A--5-----------|-------------|-2-----------|---------2-4-|
e--------------|-2-----------|-------------|-------------|

(2x) ("Of yesterdays hurting child...")
   1 + 2 + 3 +   1 + 2 + 3 +   1 + 2 + 3 +   1 + 2 + 3 +
E--------2-----|-------------|-2-----------|-2-----------|
B--5-------5---|-3-------5---|-------3---3-|-3-----------| 
G--5-----------|-4-----------|-----2---2---|-------------| 
D--------------|-------------|---4---------|-------------| 
A--3-----------|-2-----------|-5-----------|-5-----------|
e--------------|-------------|-------------|-------------|
                              (...night so...) 
                               1 + 2 + 3 +   1 + 2 + 3 +
                             |-2-----------|-------------|
                             |-------3---3-|-------3-----| 
                             |-----2---2---|-----2-------| 
                             |---4---------|---4---------| 
                             |-5-----------|-4-----------|
                             |-------------|-------------|

("Morning comes...")
   1 + 2 + 3 +   1 + 2 + 3 +   1 + 2 + 3 +   1 + 2 + 3 +
E--------------|-------------|-------------|-2-----------|
B--------3-----|-------3-----|-------3-----|-----5---3---| 
G------4-------|-----4-------|-----4-------|-------------| 
D----4---------|---4---------|---4---------|-------------| 
A--2-----------|-------------|-------------|-------------|
e--------------|-5-----------|-3-----------|-------------|

("On the cloud within the sky beneath the dawn...")
   1 + 2 + 3 +   1 + 2 + 3 +   1 + 2 + 3 +   1 + 2 + 3 +
E--------------|-------------|-------------|-------------|
B--5-----------|-5-----------|-3---3-3-3-3-|-3---3-3-3-3-| 
G--5-----------|-6-----------|-4---4-4-4-4-|-4---4-4-4-4-| 
D--5-----------|-6-----------|-4---4-4-4-4-|-4---4-4-4-4-| 
A--3-----------|-4-----------|-2---2-2-2-2-|-2---2-2-2-2-|
e--------------|-------------|-------------|-------------|
		(not sure
		if this accord
		is right)
Добавлено: 26.02.2012
Другие материалы по этой песне:
  • Аккорды и текст

Страница создана 26.02.2012
http://primanota.ru/emiliana-torrini/serenade-chords.htm
Привет, Гость.
Предлагаем пройти революционный курс по гитаре.
Подарок от PrimaNota.Ru, забирай!