PrimaNota.ru - самый крупный в мире бесплатный архив песенных текстов, аккордов, табулатур и нот


Emil - Dub Shot - бас-таба, видео

Регистрация Запомнить меня
Войти через:  Facebook Google Twitter Vk Yandex Mail.ru

Emil - Dub Shot - бас-таба, видео

Печатать
Просмотров: 120
Intro+ Vers+ o parte din refren

E--------------------------------------------------------------------------|
D------------0---2---4-----------2-------------------0---2---4-----------2-|
A-2---2--2----------------0---0-----0-----2---2--2----------------0---0----|
E--------------------------------------------------------------------------|


La : Spune-i sangelui ce trebuie sa simta :
E-----------------------------------------------------------------------|
D-0---0---0----4--5--7----------2---------------------------------------|
A-----------------------0---0-----0-------------------------------------|
E----------------------------------------2---2---2---2---3---3---5------|  x2


Si inapoi la

E--------------------------------------------------------------------------|
D------------0---2---4-----------2-------------------0---2---4-----------2-|
A-2---2--2----------------0---0-----0-----2---2--2----------------0---0----|
E--------------------------------------------------------------------------|
Добавлено: 08.06.2012
Вам также может быть интересно:
Другие материалы по этой песне:
  • Аккорды и текст

Страница создана 08.06.2012
http://primanota.ru/emil/dub-shot-chords.htm
Привет, Гость.
Предлагаем пройти революционный курс по гитаре.
Подарок от PrimaNota.Ru, забирай!