PrimaNota.ru - самый крупный в мире бесплатный архив песенных текстов, аккордов, табулатур и нот


Emil - Da Vrei - таба, видео

Регистрация Запомнить меня
Войти через:  Facebook Google Twitter Vk Yandex Mail.ru

Emil - Da Vrei - таба, видео

Печатать
Просмотров: 122
(inro) x 2

 e|------------|-----------|-----------|----------------|
 b|------------|-----------|-----------|----------------|
 G|------4h5h4-|-----4h5-4-|-----4h5h4-|----------------|
 D|-5~-5-------|-2~2-------|-5~5-------|2-222-2-2-0-0-0-|
 A|------------|-----------|-----------|----------------|
 E|------------|-----------|-----------|----------------|

 (refren 1) x 2
       prima chitara
   G             E            G
 e|------------|------------|------------|
 b|------------|------------|------------|
 G|12~~~~------|9~~~~~------|12~~~~------|
 D|12~~~~7h8-7-|9~~~~~7h8-7-|12~~~~7h8-7-|
 A|10~~~~7h8-7-|7~~~~~7h8-7-|10~~~~7h8-7-|
 E|10~~~~------|7~~~~~------|10~~~~------|
   E         D
 e|----------------|
 b|----------------|
 G|9-999-9-9-7-7-7-|
 D|9-999-9-9-7-7-7-|
 A|7-777-7-7-5-5-5-|
 E|7-777-7-7-5-5-5-|
         a doua chitara
 e|-------------|------------|------------|----------------|
 b|-------------|------------|------------|----------------|
 G|------4h5-4^-|-----4h5-4--|-----4h5-4^-|----------------|
 D|-5~-5-------5|-2~2--------|-5~5-------5|2-222-2-2-0-0-0-|
 A|-------------|------------|------------|2-222-2-2-0-0-0-|
 E|-------------|------------|------------|----------------|

(versuri)
G               E
ai ramas asteptand noaptea sa traga cortina
G                E
ai ramas singur tu cu nicotina
G                E
ai ramas intins cu lumina stinsa
G               E
cu tigara aprinsa asteptand
(refren 1) x 2
 furtuna.........asteptand furtuna......

 (versuri)
 G             E
tot ce ai avut ai pierdut de mult
G                E
tot ce ai gresit a durut prea mult
G                      E
chiar si omul din oglinda te priveste mut
G              E
ingropand in el secrete

(interludiu)
B major           C major
ploaia nu spala pacate
B major                   C major
macar le-ar fi spalat pe toate...

(ref 2) x 2
    G major       E major
da vrei        ueeeeei
    B major       C major
da vrei        ueeeeei

(refren 1) x 2

(vers)
G                    E
igropate in orbite stau priviri neprafuite
G                      (partea fara insrumente)
ascunse printre cuvinte stau secrete adormite
G                            E
astazi chiar nu mai conteaza cine minte  cine nu
G                   E
astazi minti doar tuuuuuuuu...

(interludiu)

(refren 2) x 2

(interludiu2)
   chitara ritmica
   E minor                 C9 major
 e|7---7--7--7--7--7--7--|-------3------3------3-|
 b|8---8--8--8--8--8--8--|-----------------------|
 G|9---9--9--9--9--9--9--|----0------0------0----|
 D|9---9--9--9--9--9--9--|-----------------------|   x 4
 A|7---7--7--7--7--7--7--|3~-------3------3------|
 E|----------------------|-----------------------|
   /\  /\ /\ \/ \/ \/ /\
      chitara solo
 e|-7-8-10~-8-7-8~--------|-----------------------|
 b|------------------7----|-7-8-10~-8-7-8~---7-8--|
 G|-----------------------|-----------------------|
 D|-----------------------|-----------------------|
 A|-----------------------|-----------------------|
 E|-----------------------|-----------------------|

 e|-7-8-10~-8-7-8~--------|-----------------------|
 b|------------------7-8--|-7-8-10~-8-7-8~---7-8--|
 G|-----------------------|-----------------------|
 D|-----------------------|-----------------------|
 A|-----------------------|-----------------------|
 E|-----------------------|-----------------------|

(interludiu)
   B           C           B           C  D
 e|7~~~~~~~~~~|8~~~~~~~~~~|7~~~~~~~~~~|8 \5------|
 b|7~~~~~~~~~~|8~~~~~~~~~~|7~~~~~~~~~~|8 \5------|
 G|8~~~~~~~~~~|9~~~~~~~~~~|8~~~~~~~~~~|9 \6------|
 D|9~~~~~~~~~~|10~~~~~~~~~|9~~~~~~~~~~|10\7------|
 A|9~~~~~~~~~~|10~~~~~~~~~|9~~~~~~~~~~|10\7------|
 E|7~~~~~~~~~~|8~~~~~~~~~~|7~~~~~~~~~~|8 \5------|

(refren 2) x 4


(refren 1)
      a doua chitara
 e|-------------|-----------|------------|----------------|
 b|-------------|-----------|------------|----------------|
 G|------4h5-4^-|-----4h5-4-|-----4h5-4^-|----------------|
 D|-5~-5-------5|-2~2-------|-5~5-------5|2-222-2-2-0-0-0-|
 A|-------------|-----------|------------|----------------|
 E|-------------|-----------|------------|----------------|

 e|-------------|-----------|------------|-----------|
 b|-------------|-----------|------------|-----------|
 G|------4h5-4^-|-----4h5-4-|-----4h5-4^-|-----------|
 D|-5~-5-------5|-2~2-------|-5~5-------5|2-222-2-2-0|
 A|-------------|-----------|------------|-----------|
 E|-------------|-----------|------------|-----------|

       prima citara
   G            E            G
 e|------------|------------|------------|
 b|------------|------------|------------|
 G|12~~~~------|9~~~~~------|12~~~~------|
 D|12~~~~7h8-7-|9~~~~~7h8-7-|12~~~~7h8-7-|
 A|10~~~~7h8-7-|7~~~~~7h8-7-|10~~~~7h8-7-|
 E|10~~~~------|7~~~~~------|10~~~~------|
   E         D
 e|----------------|
 b|----------------|
 G|9-999-9-9-7-7-7-|
 D|9-999-9-9-7-7-7-|
 A|7-777-7-7-5-5-5-|
 E|7-777-7-7-5-5-5-|
   G            E            G
 e|------------|------------|------------|
 b|------------|------------|------------|
 G|12~~~~------|9~~~~~------|12~~~~------|
 D|12~~~~7h8-7-|9~~~~~7h8-7-|12~~~~7h8-7-|
 A|10~~~~7h8-7-|7~~~~~7h8-7-|10~~~~7h8-7-|
 E|10~~~~------|7~~~~~------|10~~~~------|
   E         D
 e|-----------|
 b|-----------|
 G|9-999-9-9-7|
 D|9-999-9-9-7|
 A|7-777-7-7-5|
 E|7-777-7-7-5|

                                C9 major
                                 e|-3-|
                                 b|-1-|
     /\-bataie in jos            G|-0-|
     \/-bataie in sus            D|-2-|
     ~-vibrato                   A|-3-|
     ^-bend                      E|---|

     [cam asta e melodia ,dar mai sunt niste chestii la chitara solo pe ultimul refren 2 
nu se aud klumea]

http://atelier.liternet.ro/articol.php?art=2167
Добавлено: 14.03.2012
Вам также может быть интересно:
Другие материалы по этой песне:

Страница создана 14.03.2012
http://primanota.ru/emil/da-vrei-chords.htm
Привет, Гость.
Предлагаем пройти революционный курс по гитаре.
Подарок от PrimaNota.Ru, забирай!