PrimaNota.ru - самый крупный в мире бесплатный архив песенных текстов, аккордов, табулатур и нот


Emil Bulls - The Architects Of My Apocalypse - текст песни, таба, бас-таба, видео

Регистрация Запомнить меня
Войти через:  Facebook Google Twitter Vk Yandex Mail.ru

Emil Bulls - The Architects Of My Apocalypse - текст песни, таба, бас-таба, видео

Печатать
Просмотров: 133
Artist: Emil Bulls
Song: The Architects Of My Apocalypse
Album: Phoenix
Released: 2009 (Ger)
tabbed by: necriononguitar
e-mail: tim.rathgen@gmx.de  (NO SPAM!!!)

REAL FANS SUPPORT BANDS BY PURCHASING THEIR CDS!

Tuning: Drop D

Intro:
    D       E       F#       G         F#       G         A         C#
E------------------------------------------------------------------------------|
B------------------------------------------------------------------------------|
G---7-------9-------11-------12--------11-------12--------14--------18---------|
D---x-x8----x-x8----x--x8----x--x8-----x--x8----x--x8-----x--x8-----x---x8-----|
A---5-------7-------9--------10--------9--------10--------12--------16---------|
E------------------------------------------------------------------------------|


Verse:             (Bass plays B and G)
E-------5------------------------------------5-------|
B-----3----------------3p2-----------------3---------|
G----------------------------------------------------|
D----------------------------------------------------|
A----------------------------------------------------|
E----------------------------------------------------|

E---------------------------------------------------------------------------|
B---------------------------------------------------------------------------|
G---------------------------------------------------------------------------|
D---------------------------------------------------------------------------|
A-2-2-2-2-2-2-2-2--------5-5-5--4-4--0-0-0-0-0-0-0-0--9-9-9--7-7-7--5-5-----|
E------------------5-5-5----------------------------------------------------|

Pre-Chorus:
E--------------------------------------------|
B--------------------------------------------|
G----7-------9-------11-------12-------------|
D----x-x8----x-x8----x--x8----x---x8---------|
A----5-------7-------9--------10-------------|
E--------------------------------------------|


Chorus:  Guitar 1
    D        A      B      G          D      A      F#     G
E---------------------------------------------------------------------|
B---------------------------------------------------------------------|
G---7---------------------------------7-------------------------------|
D---7--x8----7------9------5----------7-x8---7------4------5----------|
A---5--------7-x8---9-x8---5-x8-------5------7-x8---4-x8---5-x8-------|
E--(0)-------7------9------5---------(0)-----7------4------5----------|

Guitar 2
    D                 A             B       G
E----------------------------------------------------------------------------|
B----------------------------------------------------------------------------|
G---11--11--12---11---9-------7--9----------------9-/-11--11-/-12---14-------|
D---x---x---x----x----x-------x--x----------------x-/-x---x--/-x----x--------|
A---9---9---10---9----7-------5--7----------------7-/-9---9--/-10---12-------|
E----------------------------------------------------------------------------|


Interlude:
Same as Pre-Chorus


/// REPAT VERSE, PRE-CHORUS AND CHORUS \\\


Bridge:
Same as Intro (twice)


Solo:
Same as Intro
(sorry im not in the mood to tab the solo.... and its not their best)


Chorus: (same as before, just a dif beginning)
E------------------------------------------|
B------------------------------------------|
G----7---x-x---7--7------------------------|
D----7---x-x---7--7---7--------------------|
A----5---x-x---5--5---7-... and so on------|
E---------------------7--------------------|

(after that chorus hit D once)

Outro:
E----------------------------------------------|
B----------------------------------------------|
G----7-------9-------11-------12-------11------|
D----x-x8----x-x8----x--x8----x---x8---x-------|
A----5-------7-------9--------10-------9-------|
E----------------------------------------------|


Thats it, please rate and comment ;D

Cheers...
Добавлено: 08.03.2012
Другие материалы по этой песне:
  • Аккорды и текст

Страница создана 08.03.2012
http://primanota.ru/emil-bulls/the-architects-of-my-apocalypse-chords.htm
Привет, Гость.
Предлагаем пройти революционный курс по гитаре.
Подарок от PrimaNota.Ru, забирай!