PrimaNota.ru - самый крупный в мире бесплатный архив песенных текстов, аккордов, табулатур и нот


Emi - The Real Slim Shady - таба, видео

Регистрация Запомнить меня
Войти через:  Facebook Google Twitter Vk Yandex Mail.ru

Emi - The Real Slim Shady - таба, видео

Печатать
Просмотров: 111
-------------------------------------------------------------------------------
                            The Real Slim Shady-Eminem
-------------------------------------------------------------------------------
Tabbed by:xguitar_godx

Tuning:Standard

e|-------------------8-------8-------8---------------|
B|----------------8-----9-------8-------8h9p8-6-8-8--|
G|-------------8-------------------------------------|
D|--------10-----------------------------------------|
A|---------------------------------------------------|
E|---------------------------------------------------|

Hope this helps!

************************************

| /   slide up
| \   slide down
| h   hammer-on
| p   pull-off
| ~   vibrato
| +   harmonic
| x   Mute note
| b   Bend
| pb  Pre-bend
| br  Bend release
| pbr Pre-bend release
| brb Bend release bend

************************************
Добавлено: 02.08.2015
Вам также может быть интересно:
Другие материалы по этой песне:
  • Аккорды и текст

Страница создана 02.08.2015
http://primanota.ru/emi/real-slim-shady-chords.htm
Привет, Гость.
Предлагаем пройти революционный курс по гитаре.
Подарок от PrimaNota.Ru, забирай!