PrimaNota.ru - самый крупный в мире бесплатный архив песенных текстов, аккордов, табулатур и нот


Emeth - Archaic Halos - таба, видео

Регистрация Запомнить меня
Войти через:  Facebook Google Twitter Vk Yandex Mail.ru

Emeth - Archaic Halos - таба, видео

Печатать
Просмотров: 101
As recorded by Emeth
                           (From the 2004 Album INSIDIOUS)


Transcribed by Matty Dupont
Words and Music by Matty Dupont


Gtr I (A# D# G# C# F# A# D#) - 'Untitled'
Gtr II (A# D# G# C# F# A# D#) - 'Untitled'

   4/8               7/8
    Gtrs I, II
    PM--------|       PM--------------------|
    S S S S S S  E    S S S S S S S S S S S S  E
||------------------|-----------------------------|
||------------------|-----------------------------|
||o-----------------|-----------------------------|
||------------------|-----------------------------|
||o-----------------|-----------------------------|
||--5-4-5-4-2-1-----|-5-4-5-4-2-1-5-4-5-4-2-1-----|
||--5-4-5-4-2-1-[4]-|-5-4-5-4-2-1-5-4-5-4-2-1-[4]-|


  1.
 9/8
  TPTPPM------------------| TPTP
  E E E E E T T T T T T T T E E
|--------------------------------||
|--------------------------------||
|-------------------------------o||
|--------------------------------||
|-3-----------------------------o||
|---4-5-6-3-----------------6----||
|-----3-4-1-4-3-1-0-4-3-1-0---7--||


  2.
 15/8
  PM--------|     PM--|     PM
  E E E E E E E E E E E E E E  E
|---------------------------------|
|---------------------------------|
|---------------------------------|
|---------------------------------|
|---------------------------------|
|-6-3-2-3-6-5-3-5-3-6-5-3-5-3-----|
|-4-1-0-1-4-3-1S3-1-4-3-1S3-1-[6]-|


 6/8                     10/8
  PM--------|     PM|             PM----|         PM--|
  S S S S S S  E  E E      E   E  E E E E  E   E  S S E
|---------------------||---------------------------------||
|---------------------||---------------------------------||
|---------------------||o-------------------------------o||
|---------------------||---------------------------------||
|---------------------||o-[3]-------------[1]-----------o||
|-5-4-5-4-2-1-----1-2-||------[4]-5-6-5-3-----[2]-3-3-6--||
|-5-4-5-4-2-1-[4]-1-2-||----------3-4-3-1---------1-1-4--||


          PM--|         PM----|
   E   E  S S E  E   E  E E E E
|-------------------------------|
|-------------------------------|
|-------------------------------|
|-------------------------------|
|-[3]-----------[1]-------------|
|-----[4]-5-5-3-----[2]-5-6-5-3-|
|---------3-3-1---------3-4-3-1-|


 10/8
  PM--------|     PM
  E E E E E E E E E  E
|-----------------------|
|-----------------------|
|-----------------------|
|-----------------------|
|-----------------------|
|-6-3-2-3-6-5-3-5-3-----|
|-4-1-0-1-4-3-1S3-1-[6]-|


   12/8                                10/8
----------------------------------TP            PM----|         PM--|
    S S S S E E S S E E S S E E E E  4x  E   E  E E E E  E   E  S S E
||-----------------------------------||--------------------------------|
||-----------------------------------||--------------------------------|
||o---------------------------------o||--------------------------------|
||-----------------------------------||--------------------------------|
||o-----2h5-------------------------o||-[3]-------------[1]------------|
||--2h5-----------------5p2----------||-----[4]-5-6-5-3-----[2]-3-3-6--|
||----------4-4-6h9-4-4-----4-4-3-3--||---------3-4-3-1---------1-1-4--|


   12/8
----------------------------------TP
    S S S S E E S S E E S S E E E E  4x
||-----------------------------------||
||-----------------------------------||
||o---------------------------------o||
||-----------------------------------||
||o-----2h5-------------------------o||
||--2h5-----------------5p2----------||
||----------4-4-6h9-4-4-----4-4-3-3--||


 10/8
          PM----|         PM--|           PM--|         PM----|
   E   E  E E E E  E   E  S S E    E   E  S S E  E   E  E E E E
|-------------------------------|--------------------------------|
|-------------------------------|--------------------------------|
|-------------------------------|--------------------------------|
|-------------------------------|--------------------------------|
|-[3]-------------[1]-----------|-[3]-----------[1]--------------|
|-----[4]-5-6-5-3-----[2]-3-3-6-|-----[4]-5-5-3-----[2]-5-6-5-3--|
|---------3-4-3-1---------1-1-4-|---------3-3-1---------3-4-3-1--|


 15/8
  PM--------|     PM--|     PM
  E E E E E E E E E E E E E E  E
|---------------------------------|
|---------------------------------|
|---------------------------------|
|---------------------------------|
|---------------------------------|
|-6-3-2-3-6-5-3-5-3-6-5-3-5-3-----|
|-4-1-0-1-4-3-1S3-1-4-3-1S3-1-[6]-|


 4/8               7/8
  PM--------|       PM--------------------|         PM--------|
  S S S S S S  E    S S S S S S S S S S S S  E      S S S S S S  E    9x
|-----------------|-----------------------------||--------------------||
|-----------------|-----------------------------||--------------------||
|-----------------|-----------------------------||o------------------o||
|-----------------|-----------------------------||--------------------||
|-----------------|-----------------------------||o------------------o||
|-5-4-5-4-2-1-----|-5-4-5-4-2-1-5-4-5-4-2-1-----||--5-4-5-4-2-1-------||
|-5-4-5-4-2-1-[4]-|-5-4-5-4-2-1-5-4-5-4-2-1-[4]-||--5-4-5-4-2-1-[4]---||


 10/8
  Gtr I
      PM----|     PM--|       PM--|     PM----|
  E E E E E E E E S S E   E E S S E E E E E E E
|-----------------------|-----------------------|
|-----------------------|-----------------------|
|-----------------------|-----------------------|
|-----------------------|-----------------------|
|-3-----------1---------|-3---------1-----------|
|---4-5-6-5-3---2-3-3-6-|---4-5-5-3---2-5-6-5-3-|
|-----3-4-3-1-----1-1-4-|-----3-3-1-----3-4-3-1-|
|
| Gtr II
|     PM----|     PM--|       PM--|     PM----|
| E E E E E E E E S S E   E E S S E E E E E E E
|-----------------------|-----------------------|
|-----------------------|-----------------------|
|-----------------------|-----------------------|
|-----------------------|-----------------------|
|-----------------------|-----------------------|
|-----5-6-5-3-----3-3-6-|-----5-5-3-----5-6-5-3-|
|-----3-4-3-1-----1-1-4-|-----3-3-1-----3-4-3-1-|


 12/8
  Gtrs I, II
  TPTPTPTPTPTPTPTPTPTPTPTP  TPTPTPTPTPTPTPTPTPTPTPTP
  E E E E E E E E E E E E   E E E E E E E E E E E E
|-------------------------|-------------------------|
|-------------------------|-------------------------|
|-------------------------|-------------------------|
|-------------------------|-------------------------|
|-------------3-2-----6-5-|-3-2---------------------|
|-----------------3-2-----|-----3-2-------2-3-2-----|
|-0-3-4-1-4-3-------------|---------4-3-4-------4-1-|


 12/8
  Gtr I
  TPTPTPTPTPTPTPTPTPTPTPTP  TPTPTPTPTPTPTPTPTPTPTPTP
  E E E E E E E E E E E E   E E E E E E E E E E E E
|-------------------------|-------------------------|
|-------------------------|-------------------------|
|-------------------------|-------------------------|
|---------------------6-5-|-3-2---------------------|
|-------------3-2---------|-----3-2-------2-3-2-----|
|-----------------3-2-----|---------4-3-4-------4-1-|
|-0-3-4-1-4-3-------------|-------------------------|
|
| Gtr II
| TPTPTPTPTPTPTPTPTPTPTPTP  TPTPTPTPTPTPTPTPTPTPTPTP
| E E E E E E E E E E E E   E E E E E E E E E E E E
|-------------------------|-------------------------|
|-------------------------|-------------------------|
|-------------------------|-------------------------|
|-------------------------|-------------------------|
|-------------3-2-----6-5-|-3-2---------------------|
|-----------------3-2-----|-----3-2-------2-3-2-----|
|-0-3-4-1-4-3-------------|---------4-3-4-------4-1-|


 10/8
  Gtrs I, II
          PM----|         PM--|           PM--|         PM----|
   E   E  E E E E  E   E  S S E    E   E  S S E  E   E  E E E E
|-------------------------------|-------------------------------|
|-------------------------------|-------------------------------|
|-------------------------------|-------------------------------|
|-------------------------------|-------------------------------|
|-[3]-------------[1]-----------|-[3]-----------[1]-------------|
|-----[4]-5-6-5-3-----[2]-3-3-6-|-----[4]-5-5-3-----[2]-5-6-5-3-|
|---------3-4-3-1---------1-1-4-|---------3-3-1---------3-4-3-1-|


 10/4
  PM--------|     PM
  Q Q Q Q Q Q Q Q Q Q
|---------------------|
|---------------------|
|---------------------|
|---------------------|
|---------------------|
|-6-3-2-3-6-5-3-5-3---|
|-4-1-0-1-4-3-1S3-1---|


   20/8                                        3/8
    PM----------------------------------------------|
    E E E E E E E E E E E E E E E E E E E E     E E E
||-------------------------------------------||-------|
||-------------------------------------------||-------|
||o-----------------------------------------o||-------|
||-------------------------------------------||-------|
||o-------------6---4-----------------------o||-------|
||--6-3-2-3-6-5-4-3-2-6-5-3-5-6-5-2-3-5-3-5--||-6-5-3-|
||--4-1-0-1-4-3---1---4-3-1-3-4-3-0-1-3-1-3--||-4-3-1-|


 19/4
          PM----|         PM------------|     PM------------|     PM----|         PM--------|
   E   E  E E E E  E   E  E E E E E E E E  E  E E E E E E E E  E  E E E E  E   E  E E E E E E
|---------------------------------------------------------------------------------------------|
|---------------------------------------------------------------------------------------------|
|---------------------------------------------------------------------------------------------|
|---------------------------------------------------------------------------------------------|
|-[3]-------------[1]-----------------------------------------------------[1]-----------------|
|-----[4]-5-6-5-3-----[2]-5-6-5-3-5-3-5-6-----5-6-5-3-5-3-5-3-[4]-5-6-5-3-----[2]-5-6-5-3-5-3-|
|---------3-4-3-1---------3-4-3-1-3-1-3-4-[7]-3-4-3-1-3-1-3-1-----3-4-3-1---------3-4-3-1-3-1-|


 4/8               7/8                           6/8
  Gtr I
  PM--------|       PM--------------------|       PM--------|     PM|
  S S S S S S  E    S S S S S S S S S S S S  E    S S S S S S  E  E E
|-----------------|-----------------------------|----------------------|
|-----------------|-----------------------------|----------------------|
|-----------------|-----------------------------|----------------------|
|-----------------|-----------------------------|----------------------|
|-----------------|-----------------------------|----------------------|
|-5-4-5-4-2-1-----|-5-4-5-4-2-1-5-4-5-4-2-1-----|-5-4-5-4-2-1-----1-2--|
|-5-4-5-4-2-1-[4]-|-5-4-5-4-2-1-5-4-5-4-2-1-[4]-|-5-4-5-4-2-1-[4]-1-2--|
|
| Gtr II
|                   PM--------------------|       PM--------|     PM|
| E   E   E    E    S S S S S S S S S S S S  E    S S S S S S  E  E E
|-----------------|-----------------------------|----------------------|
|-----------------|-----------------------------|----------------------|
|-----------------|-----------------------------|----------------------|
|-----------------|-----------------------------|----------------------|
|-----------------|-----------------------------|----------------------|
|-----------------|-5-4-5-4-2-1-5-4-5-4-2-1-----|-5-4-5-4-2-1-----1-2--|
|-----------------|-5-4-5-4-2-1-5-4-5-4-2-1-[4]-|-5-4-5-4-2-1-[4]-1-2--|


 10/8                    4/8               7/8
      PM----|     PM----------------|       PM--------------------|
  E E E E E E E E S S E   S S S S S S  E    S S S S S S S S S S S S  E
|-----------------------|-----------------|------------------------------|
|-----------------------|-----------------|------------------------------|
|-----------------------|-----------------|------------------------------|
|-----------------------|-----------------|------------------------------|
|-3-----------1---------|-----------------|------------------------------|
|---4-5-6-5-3---2-3-3-6-|-5-4-5-4-2-1-----|-5-4-5-4-2-1-5-4-5-4-2-1------|
|-----3-4-3-1-----1-1-4-|-5-4-5-4-2-1-[4]-|-5-4-5-4-2-1-5-4-5-4-2-1-[4]--|
|
|     PM|         PM----------------|       PM--------------------|
| E E E E E E E E S S E   S S S S S S  E    S S S S S S S S S S S S  E
|-----------------------|-----------------|------------------------------|
|-----------------------|-----------------|------------------------------|
|-----------------------|-----------------|------------------------------|
|-----------------------|-----------------|------------------------------|
|-----------------------|-----------------|------------------------------|
|-----5-6---------3-3-6-|-5-4-5-4-2-1-----|-5-4-5-4-2-1-5-4-5-4-2-1------|
|-----3-4---------1-1-4-|-5-4-5-4-2-1-[4]-|-5-4-5-4-2-1-5-4-5-4-2-1-[4]--|


 9/8                             4/8
  TPTPPM------------------| TPTP  PM--------|
  E E E E E T T T T T T T T E E   S S S S S S  E
|-------------------------------|-----------------|
|-------------------------------|-----------------|
|-------------------------------|-----------------|
|-------------------------------|-----------------|
|-3-----------------------------|-----------------|
|---4-5-6-3-----------------6---|-5-4-5-4-2-1-----|
|-----3-4-1-4-3-1-0-4-3-1-0---7-|-5-4-5-4-2-1-[4]-|
|
| TPTPPM------------------| TPTP  PM--------|
| E E E E E T T T T T T T T E E   S S S S S S  E
|-------------------------------|-----------------|
|-------------------------------|-----------------|
|-------------------------------|-----------------|
|-------------------------------|-----------------|
|-3-----------------------------|-----------------|
|---4-5-6-3-----------------6---|-5-4-5-4-2-1-----|
|-----3-4-1-4-3-1-0-4-3-1-0---7-|-5-4-5-4-2-1-[4]-|


   7/8                             4/8
    PM--------------------|         PM--------|
    S S S S S S S S S S S S  E      S S S S S S  E
||-------------------------------||-----------------|
||-------------------------------||-----------------|
||o-----------------------------o||-----------------|
||-------------------------------||-----------------|
||o-----------------------------o||-----------------|
||--5-4-5-4-2-1-5-4-5-4-2-1------||-5-4-5-4-2-1-----|
||--5-4-5-4-2-1-5-4-5-4-2-1-[4]--||-5-4-5-4-2-1-[4]-|
|
|   PM--------------------|
|   S S S S S S S S S S S S  E      E   E   E    E
||-------------------------------||-----------------|
||-------------------------------||-----------------|
||o-----------------------------o||-----------------|
||-------------------------------||-----------------|
||o-----------------------------o||-----------------|
||--5-4-5-4-2-1-5-4-5-4-2-1------||-----------------|
||--5-4-5-4-2-1-5-4-5-4-2-1-[4]--||-----------------|


 6/8                   10/8
  PM--------|     PM|       PM----|     PM--|
  S S S S S S  E  E E   E E E E E E E E S S E
|---------------------|-----------------------|
|---------------------|-----------------------|
|---------------------|-----------------------|
|---------------------|-----------------------|
|---------------------|-3-----------1---------|
|-5-4-5-4-2-1-----1-2-|---4-5-6-5-3---2-3-3-6-|
|-5-4-5-4-2-1-[4]-1-2-|-----3-4-3-1-----1-1-4-|
|
| PM--------|     PM|       PM|         PM--|
| S S S S S S  E  E E   E E E E E E E E S S E
|---------------------|-----------------------|
|---------------------|-----------------------|
|---------------------|-----------------------|
|---------------------|-----------------------|
|---------------------|-----------------------|
|-5-4-5-4-2-1-----1-2-|-----5-6---------3-3-6-|
|-5-4-5-4-2-1-[4]-1-2-|-----3-4---------1-1-4-|


          PM----|         PM--|           PM--|         PM----|
   E   E  E E E E  E   E  S S E    E   E  S S E  E   E  E E E E
|-------------------------------|----------------------------------|
|-------------------------------|----------------------------------|
|-------------------------------|----------------------------------|
|-------------------------------|----------------------------------|
|-[3]-------------[1]-----------|-[3]-----------[1]----------------|
|-----[4]-5-6-5-3-----[2]-3-3-6-|-----[4]-5-5-3-----[2]-5-6-5-3----|
|---------3-4-3-1---------1-1-4-|---------3-3-1---------3-4-3-1----|
|
|         PM----|         PM--|           PM--|         PM----|
|  E   E  E E E E  E   E  S S E    E   E  S S E  E   E  E E E E
|-------------------------------|----------------------------------|
|-------------------------------|----------------------------------|
|-------------------------------|----------------------------------|
|-------------------------------|----------------------------------|
|-[3]-------------[1]-----------|-[3]-----------[1]----------------|
|-----[4]-5-6-5-3-----[2]-3-3-6-|-----[4]-5-5-3-----[2]-5-6-5-3----|
|---------3-4-3-1---------1-1-4-|---------3-3-1---------3-4-3-1----|


   12/8                                10/8
    Gtrs I, II
----------------------------------TP            PM--|         PM----|
    S S S S E E S S E E S S E E E E  4x  E   E  S S E  E   E  E E E E
||-----------------------------------||--------------------------------|
||-----------------------------------||--------------------------------|
||o---------------------------------o||--------------------------------|
||-----------------------------------||--------------------------------|
||o-----2h5-------------------------o||-[3]-----------[1]--------------|
||--2h5-----------------5p2----------||-----[4]-5-5-3-----[2]-5-6-5-3--|
||----------4-4-6h9-4-4-----4-4-3-3--||---------3-3-1---------3-4-3-1--|


   12/8
----------------------------------TP
    S S S S E E S S E E S S E E E E  4x
||-----------------------------------||
||-----------------------------------||
||o---------------------------------o||
||-----------------------------------||
||o-----2h5-------------------------o||
||--2h5-----------------5p2----------||
||----------4-4-6h9-4-4-----4-4-3-3--||


 10/8
          PM----|         PM--|           PM--|         PM----|
   E   E  E E E E  E   E  S S E    E   E  S S E  E   E  E E E E
|-------------------------------|--------------------------------|
|-------------------------------|--------------------------------|
|-------------------------------|--------------------------------|
|-------------------------------|--------------------------------|
|-[3]-------------[1]-----------|-[3]-----------[1]--------------|
|-----[4]-5-6-5-3-----[2]-3-3-6-|-----[4]-5-5-3-----[2]-5-6-5-3--|
|---------3-4-3-1---------1-1-4-|---------3-3-1---------3-4-3-1--|


 16/4
  PM------|   PM    PM--|     PM
  Q Q Q Q E E Q Q Q Q Q Q Q Q Q  Q  Q
|-------------------------------------|
|-------------------------------------|
|-------------------------------------|
|-------------------------------------|
|-------------------------------------|
|-6-3-2-3-6---5-3S5-3-6-5-3S5-3--6--5-|
|-4-1-0-1-4---3-1S3-1-4-3-1S3-1-[4]-3-|


    PM--------|                 PM----|         PM--|
    S S S S S S  E   9x  E   E  E E E E  E   E  S S E
||-------------------||-------------------------------|
||-------------------||-------------------------------|
||o-----------------o||-------------------------------|
||-------------------||-------------------------------|
||o-----------------o||-[3]-------------[1]-----------|
||--5-4-5-4-2-1------||-----[4]-5-6-5-3-----[2]-3-3-6-|
||--5-4-5-4-2-1-[4]--||---------3-4-3-1---------1-1-4-|


                                 12/8
          PM--|         PM----|
   E   E  S S E  E   E  E E E E    E E E E E E E E E E E E
|-------------------------------|-----------------------------|
|-------------------------------|-----------------------------|
|-------------------------------|-----------------------------|
|-------------------------------|-----------------------------|
|-[3]-----------[1]-------------|-----------------------------|
|-----[4]-3-3-6-----[2]-5-6-5-3-|-----------------------------|
|---------1-1-4---------3-4-3-1-|-----------------------------|


 6/8                   10/8
  PM--------|     PM|       PM|         PM-----
  S S S S S S  E  E E   E E E E E E E E S S E
|---------------------|-----------------------|
|---------------------|-----------------------|
|---------------------|-----------------------|
|---------------------|-----------------------|
|---------------------|-----------------------|
|-5-4-5-4-2-1-----1-2-|-----5-6---------3-3-6-|
|-5-4-5-4-2-1-[4]-1-2-|-----3-4---------1-1-4-|


 4/8               7/8
 -----------|       PM--------------------|
  S S S S S S  E    S S S S S S S S S S S S  E
|-----------------|-------------------------------|
|-----------------|-------------------------------|
|-----------------|-------------------------------|
|-----------------|-------------------------------|
|-----------------|-------------------------------|
|-5-4-5-4-2-1-----|-5-4-5-4-2-1-5-4-5-4-2-1-------|
|-5-4-5-4-2-1-[4]-|-5-4-5-4-2-1-5-4-5-4-2-1-[4]---|


 9/8                             4/8
  Gtr I
  TPTPPM------------------| TPTP  PM--------|
  E E E E E T T T T T T T T E E   S S S S S S  E
|-------------------------------|-----------------|
|-------------------------------|-----------------|
|-------------------------------|-----------------|
|-------------------------------|-----------------|
|-3-----------------------------|-----------------|
|---4-5-6-3-----------------6---|-5-4-5-4-2-1-----|
|-----3-4-1-4-3-1-0-4-3-1-0---7-|-5-4-5-4-2-1-[4]-|
|
| Gtr II
| TPTPPM------------------| TPTP  PM--------|
| E E E E E T T T T T T T T E E   S S S S S S  E
|-------------------------------|-----------------|
|-------------------------------|-----------------|
|-------------------------------|-----------------|
|-------------------------------|-----------------|
|-3-----------------------------|-----------------|
|---4-5-6-3-----------------6---|-5-4-5-4-2-1-----|
|-----3-4-1-4-3-1-0-4-3-1-0---7-|-5-4-5-4-2-1-[4]-|


   7/8                             4/8
    PM--------------------|         PM--------|
    S S S S S S S S S S S S  E      S S S S S S  E
||-------------------------------||-----------------|
||-------------------------------||-----------------|
||o-----------------------------o||-----------------|
||-------------------------------||-----------------|
||o-----------------------------o||-----------------|
||--5-4-5-4-2-1-5-4-5-4-2-1------||-5-4-5-4-2-1-----|
||--5-4-5-4-2-1-5-4-5-4-2-1-[4]--||-5-4-5-4-2-1-[4]-|
|
|   PM--------------------|
|   S S S S S S S S S S S S  E      E   E   E    E
||-------------------------------||-----------------|
||-------------------------------||-----------------|
||o-----------------------------o||-----------------|
||-------------------------------||-----------------|
||o-----------------------------o||-----------------|
||--5-4-5-4-2-1-5-4-5-4-2-1------||-----------------|
||--5-4-5-4-2-1-5-4-5-4-2-1-[4]--||-----------------|


 6/8                   10/8
  Gtrs I, II
  PM--------|     PM|       PM|         PM--|
  S S S S S S  E  E E   E E E E E E E E S S E
|---------------------|-----------------------|
|---------------------|-----------------------|
|---------------------|-----------------------|
|---------------------|-----------------------|
|---------------------|-----------------------|
|-5-4-5-4-2-1-----1-2-|-----5-6---------3-3-6-|
|-5-4-5-4-2-1-[4]-1-2-|-----3-4---------1-1-4-|


          PM----|         PM--|           PM--|         PM----|
   E   E  E E E E  E   E  S S E    E   E  S S E  E   E  E E E E
|-------------------------------|----------------------------------|
|-------------------------------|----------------------------------|
|-------------------------------|----------------------------------|
|-------------------------------|----------------------------------|
|-[3]-------------[1]-----------|-[3]-----------[1]----------------|
|-----[4]-5-6-5-3-----[2]-3-3-6-|-----[4]-3-3-6-----[2]-5-6-5-3----|
|---------3-4-3-1---------1-1-4-|---------1-1-4---------3-4-3-1----|


 4/8               7/8                           6/8
  PM--------|       PM--------------------|       PM--------|     PM|
  S S S S S S  E    S S S S S S S S S S S S  E    S S S S S S  E  E E
|-----------------|-----------------------------|----------------------|
|-----------------|-----------------------------|----------------------|
|-----------------|-----------------------------|----------------------|
|-----------------|-----------------------------|----------------------|
|-----------------|-----------------------------|----------------------|
|-5-4-5-4-2-1-----|-5-4-5-4-2-1-5-4-5-4-2-1-----|-5-4-5-4-2-1-----1-2--|
|-5-4-5-4-2-1-[4]-|-5-4-5-4-2-1-5-4-5-4-2-1-[4]-|-5-4-5-4-2-1-[4]-1-2--|


 10/8                    4/8               7/8
  Gtr I
      PM----|     PM----------------|       PM--------------------|
  E E E E E E E E S S E   S S S S S S  E    S S S S S S S S S S S S  E
|-----------------------|-----------------|------------------------------|
|-----------------------|-----------------|------------------------------|
|-----------------------|-----------------|------------------------------|
|-----------------------|-----------------|------------------------------|
|-3-----------1---------|-----------------|------------------------------|
|---4-5-6-5-3---2-3-3-6-|-5-4-5-4-2-1-----|-5-4-5-4-2-1-5-4-5-4-2-1------|
|-----3-4-3-1-----1-1-4-|-5-4-5-4-2-1-[4]-|-5-4-5-4-2-1-5-4-5-4-2-1-[4]--|
|
| Gtr II
|     PM|         PM----------------|       PM--------------------|
| E E E E E E E E S S E   S S S S S S  E    S S S S S S S S S S S S  E
|-----------------------|-----------------|------------------------------|
|-----------------------|-----------------|------------------------------|
|-----------------------|-----------------|------------------------------|
|-----------------------|-----------------|------------------------------|
|-----------------------|-----------------|------------------------------|
|-----5-6---------3-3-6-|-5-4-5-4-2-1-----|-5-4-5-4-2-1-5-4-5-4-2-1------|
|-----3-4---------1-1-4-|-5-4-5-4-2-1-[4]-|-5-4-5-4-2-1-5-4-5-4-2-1-[4]--|


 9/8
  Gtrs I, II
  TPTPPM------------------| TPTP
  E E E E E T T T T T T T T E E
|-------------------------------|
|-------------------------------|
|-------------------------------|
|-------------------------------|
|-3-----------------------------|
|---4-5-6-3-----------------6---|
|-----3-4-1-4-3-1-0-4-3-1-0---7-|


 4/8
  PM--------|       PM--------------------|
  S S S S S S  E    S S S S S S S S S S S S  E
|-----------------|-----------------------------|
|-----------------|-----------------------------|
|-----------------|-----------------------------|
|-----------------|-----------------------------|
|-----------------|-----------------------------|
|-5-4-5-4-2-1-----|-5-4-5-4-2-1-5-4-5-4-2-1-----|
|-5-4-5-4-2-1-[4]-|-5-4-5-4-2-1-5-4-5-4-2-1-[4]-|


   20/8                                        3/8
    Gtrs I, II
    PM----------------------------------------------|
    E E E E E E E E E E E E E E E E E E E E     E E E
||-------------------------------------------||-------|
||-------------------------------------------||-------|
||o-----------------------------------------o||-------|
||-------------------------------------------||-------|
||o-------------6---4-----------------------o||-------|
||--6-3-2-3-6-5-4-3-2-6-5-3-5-6-5-2-3-5-3-5--||-6-5-3-|
||--4-1-0-1-4-3---1---4-3-1-3-4-3-0-1-3-1-3--||-4-3-1-|


   20/8                                        3/8
    PM----------------------------------------------|
    E E E E E E E E E E E E E E E E E E E E     E E E
||-------------------------------------------||-------|
||-------------------------------------------||-------|
||o-----------------------------------------o||-------|
||-------------------------------------------||-------|
||o-------------6---4-----------------------o||-------|
||--6-3-2-3-6-5-4-3-2-6-5-3-5-6-5-2-3-5-3-5--||-6-5-3-|
||--4-1-0-1-4-3---1---4-3-1-3-4-3-0-1-3-1-3--||-4-3-1-|


 19/4
          PM----|         PM------------|     PM------------|     PM----|         PM--------|
   E   E  E E E E  E   E  E E E E E E E E  E  E E E E E E E E  E  E E E E  E   E  E E E E E E
|---------------------------------------------------------------------------------------------|
|---------------------------------------------------------------------------------------------|
|---------------------------------------------------------------------------------------------|
|---------------------------------------------------------------------------------------------|
|-[3]-------------[1]-----------------------------------------------------[1]-----------------|
|-----[4]-5-6-5-3-----[2]-5-6-5-3-5-3-5-6-----5-6-5-3-5-3-5-3-[4]-5-6-5-3-----[2]-5-6-5-3-5-3-|
|---------3-4-3-1---------3-4-3-1-3-1-3-4-[7]-3-4-3-1-3-1-3-1-----3-4-3-1---------3-4-3-1-3-1-|

END.


Duration Legend
---------------
W - whole; H - half; Q - quarter; E - 8th; S - 16th; T - 32nd; X - 64th; a - acciaccatura
+ - note tied to previous; . - note dotted; .. - note double dotted
Uncapitalized letters represent notes that are staccato (1/2 duration)
Irregular groupings are notated above the duration line
Duration letters will always appear directly above the note/fret number it represents the
duration for.  Duration letters with no fret number below them represent rests.  Multi-
bar rests are notated in the form Wxn, where n is the number of bars to rest for.  Low
melody durations appear below the staff

Tablature Legend
----------------
 h   - hammer-on
 p   - pull-off
 b   - bend
 pb  - pre-bend
 r   - bend release (if no number after the r, then release immediately)
 /\  - slide into or out of (from/to "nowhere")
 s   - legato slide
 S   - shift slide
 - natural harmonic
[n]  - artificial harmonic
n(n) - tapped harmonic
 ~   - vibrato
 tr  - trill
 T   - tap
 TP  - trem. picking
 PM  - palm muting
\n/  - tremolo bar dip; n = amount to dip
 \n  - tremolo bar down
 n/  - tremolo bar up
/n\  - tremolo bar inverted dip
 =   - hold bend; also acts as connecting device for hammers/pulls
 <> - volume swell (louder/softer)
 x   - on rhythm slash represents muted slash
 o   - on rhythm slash represents single note slash

Misc Legend
-----------
 |  - bar
||  - double bar
||o - repeat start
o|| - repeat end
*|  - double bar (ending)
 :  - bar (freetime)
 $  - Segno
 &  - Coda
Tempo markers -  = BPM(8/16=s8/s16), where s8 = swing 8ths, s16 = swing 16ths
Добавлено: 29.08.2013
Другие материалы по этой песне:

Страница создана 29.08.2013
http://primanota.ru/emeth/archaic-halos-chords.htm
Привет, Гость.
Предлагаем пройти революционный курс по гитаре.
Подарок от PrimaNota.Ru, забирай!