PrimaNota.ru - самый крупный в мире бесплатный архив песенных текстов, аккордов, табулатур и нот


Emery - The Ponytail Parade - таба, видео

Регистрация Запомнить меня
Войти через:  Facebook Google Twitter Vk Yandex Mail.ru

Emery - The Ponytail Parade - таба, видео

Печатать
Просмотров: 112
Song: The Ponytail Parades(Acoustic)
Artist: Emery
Half Step Down (EbAbDbGbBbEb)

I made this tab from the live version but with some minor changes around. It's a
mix of the acoustic and electric versions. I also used the DVD to see how they
played it, sounds good to me.

(Chords relevant to tuning) 

Guitar 1: Chords
Guitar 2: Chords and extras


Gtr 2
|--0--0--0--0--0--0--0----|
|---7--7--7--7--7--7--7---|
|-8--8--8--8--8--8--8--8--|
|-------------------------|
|-------------------------|
|-------------------------|

A                    
Three sleepless nights
            C#m
This isn't how its supposed to be.

Gtr 2
|-------------------7-11-7-11-7-|
|-9-7-----7-9-7-9-10------------| 
|----9-8-9----------------------| 
|-------------------------------|         
|-------------------------------|
|-------------------------------|

   B
But you are so good at 
A                     C#m
taking your time to get back to me.

Gtr 1&2
|--------0~-----|
|--------4~-----|
|--------6~-----|
|-4-4-4---------|
|-4-4-4---------|
|-2-2-2---------|

C#m                    B
I will wait for you forever,
   A                  C#m                                 
if you would just ask me.
                         B
I thought that I could change you
A        F#m     E      
but you changed me.

C#m                    
It doesn't feel right, 
           B
holding someone else's hand.

Gtr 2
|-------------------7-11-7-11-7-|
|-9-7-----7-9-7-9-10------------| 
|----9-8-9----------------------| 
|-------------------------------|         
|-------------------------------|
|-------------------------------|
  
             C#m     
Together on phone line, 
               B      F#m
and living at two opposite ends.

Gtr 1&2
|--------0~-----|
|--------4~-----|
|--------6~-----|
|-4-4-4---------|
|-4-4-4---------|
|-2-2-2---------|


C#m    
It scares me to think, 
      B                      A
that you could find takers other than me 
  F#m
and better than me.


C#m                    
But you're head is elsewhere, 
          B                          
and I'm talking enough for both of us.
A             F#m     C#m
When will you see it's not (it's not) so easy for me
C#m               B                A
you're careless, and whispered, insulting, and bruising.
C#m                   B
And I thought that you said 
A
things were improving.
     C#m          B
These laces are untied,

    A                  Am
but my feet are still walking away.



(I fall from you eyes, your eyes I trusted, you said forever)
E                    C#m                                 
I never thought that you could say these words.
A
Is this really happening? 
E                    C#m                                 
I never thought that you could say these words.
(Don't say...)
A
Is this really happening?
E                     C#m                                 
I never thought that you could say these words.
(Don't say that we can...)
A
Is this really happening?
E                    C#m                                 
I never thought that you could say these words.
(Don't say that we can still be...)
A
Is this really happening?
E                     C#m                                 
I never thought that you could say these words.
A
Is this really happening?
(Don't say that we can still be friends)

Erase my name from this page.

C#m


             A         F#m     
How can you take all these days
(What is inside of me what have I done?)
C#m            B 
and throw them away 
(Is this the only way that you will notice me?) 
A              F#m          C#m
as I sit here waiting for you (for you) 
(Dead words for closed ears all this is sung for you)
A           F#m
I stay up nights 
(If you are still pretending this is what's right) 
 C#m                 B
until stars leave the sky 
(Why can't you look at me can you only see?)
A              F#m          C#m
knowing what my dreams can take away 
(One side, your side, can take away) 


Gtr 1
|------------------------------|
|-----5-------5----------------|
|-6-6-6-6-4-4-6-4------9-8-6---|  x3
|-6-6---6-4-4---4-4-4--9-8-6---|
|-4-4---4-2-2---2-4-4--7-6-4---|
|-----------------2-2----------|

Gtr 2
|-----------------------------|
|-----5-------5---------------|
|-6-6-6-6-4-4-6-4------9-8-6--|  x2
|-6-6---6-4-4---4-4-4---------|
|-4-4---4-2-2---2-4-4--7-6-4--|
|-----------------2-2---------|

|-----------------------------|
|-----------------------------|
|-----44----44----44--9-8-6---|
|---66----66----66------------|
|-44----44----44------7-6-4---|
|-----------------------------|

Walk away from me. 

This night is done.



Anything,  Email: magnificent_adroitness@hotmail.com

Maximo
Добавлено: 19.05.2012
Другие материалы по этой песне:

Страница создана 25.02.2012
http://primanota.ru/emery/the-ponytail-parade-chords.htm
Привет, Гость.
Предлагаем пройти революционный курс по гитаре.
Подарок от PrimaNota.Ru, забирай!