PrimaNota.ru - самый крупный в мире бесплатный архив песенных текстов, аккордов, табулатур и нот


Emery - The Party Song - текст песни, таба, бас-таба, видео

Регистрация Запомнить меня
Войти через:  Facebook Google Twitter Vk Yandex Mail.ru

Emery - The Party Song - текст песни, таба, бас-таба, видео

Печатать
Просмотров: 251
Emery-The Party Song
Album-I'm Only A Man
Tabbed by: overflowme/schecter777
Email: strummer99@cox.net

Guitar 1 “distortion” (C#-G#-C#-F#-A#-D#)
Guitar 2 “distortion” (C#-G#-C#-F#-A#-D#)
Guitar 3 “clean”      (C#-G#-C#-F#-A#-D#)
Guitar 4 “acoustic”   (C#-G#-C#-F#-A#-D#)

Key:
/=slide up
\=slide down
~=let ring
x=mute
.=palm mute
p=pull-off
b=bend

Intro
Gtr. 3
[----------------------------------------------------]2x
[----------------------------------------------------]
[----------------------------------------------------]
[--/12-12-12-12-12-12-12-12-11-11-11-11-11-11-11-11--]
[--/-9--9--9--9--9--9--9--9--9--9--9--9--9--9--9--9--]
[--/-9--9--9--9--9--9--9--9--7--7--7--7--7--7--7--7--]

Then, Gtr. 1
[---------------------------------------------------]
[---------------------------------------------------]
[---------------------------------------------------]
[--12-12-12-12-12-12-12-12-11-11-11-11-11-11-11-11--]
[---9--9--9--9--9--9--9--9--9--9--9--9--9--9--9--9--]
[---9--9--9--9--9--9--9--9--7--7--7--7--7--7--7--7--]

[-------------------------------------------]
[--10-10-10-10-10-10-10-10------------------]
[---9--9--9--9--9--9--9--9-7-7-7-7-7-7-7-7--]
[---7--7--7--7--7--7--7--7-5-5-5-5-5-5-5-5--]
[---7--7--7--7--7--7--7--7-5-5-5-5-5-5-5-5--]
[---7--7--7--7--7--7--7--7-5-5-5-5-5-5-5-5--]

Verse 1
Gtr. 3
[---------------------------------------------------------------]
[---------------------------------------------------------------]
[---------------------------------------------------------------]
[--4-----------------------------0------------------------------]
[--4-4-4-4-4-4-4-4-4-4-4-4-4-4-4-0-0-0-0-0-0-0-0-0-0-0-0-0-0-0--]
[--4-4-4-4-4-4-4-4-4-4-4-4-4-4-4-0-0-0-0-0-0-0-0-0-0-0-0-0-0-0--]
     . . . . . . . . . . . . . .   . . . . . . . . . . . . . . 
[---------------------------------------/9------------------]
[---------------------------------------/7--0---0---0-------]
[-------------------------------------------------6---------]
[--9-------------0-------------4----4-4-------7-------7-9\--]
[--9-9-9-9-9-9-9-0-0-0-0-0-0-0-4--4-4-4---------------------]
[--9-9-9-9-9-9-9-0-0-0-0-0-0-0-4--4-4-4---------------------]
     . . . . . .   . . . . . .    .
Then, Gtr. 1
[---------------------------------------------------------------]
[---------------------------------------------------------------]
[---------------------------------------------------------------]
[--4-----------------------------0------------------------------]
[--4-4-4-4-4-4-4-4-4-4-4-4-4-4-4-0-0-0-0-0-0-0-0-0-0-0-0-0-0-0--]
[--4-4-4-4-4-4-4-4-4-4-4-4-4-4-4-0-0-0-0-0-0-0-0-0-0-0-0-0-0-0--]
     . . . . . . . . . . . . . .   . . . . . . . . . . . . . . 
[---------------------------------------------------------------]
[---------------------------------------------------------------]
[---------------------------------------------------------------]
[--9-------------0-------------4----7--7-4---4------------------]
[--9-9-9-9-9-9-9-0-0-0-0-0-0-0-4--4-7--7-4-4-4-4-4-4-4-4-4-4-4--]
[--9-9-9-9-9-9-9-0-0-0-0-0-0-0-4--4-7--7-4-4-4-4-4-4-4-4-4-4-4--]
     . . . . . .   . . . . . .    .        .   . . . . . . . .
Pre-Chorus
[-------------------------------------------------------------------]
[-------------------------------------------------------------------]
[-------------------------------------------------------------------]
[--0-0-0-0-0-0-0-0-9-9-9-9-9-9-9-9-0-0-0-0-0-0-0-0-9-9-9-9-9-9-9-9--]
[--0-0-0-0-0-0-0-0-7-7-7-7-7-7-7-7-0-0-0-0-0-0-0-0-7-7-7-7-7-7-7-7--]
[--0-0-0-0-0-0-0-0-7-7-7-7-7-7-7-7-0-0-0-0-0-0-0-0-7-7-7-7-7-7-7-7--]

Chorus
[------------------------------------------]
[------------------------------------------]
[--------------------------11-11-----------]
[--4-4-4-4-4-4-4-4-7-7-7-7-11-11-----------]
[--4-4-4-4-4-4-4-4-4-4-4-4--9--9-12p11p10--]
[--4-4-4-4-4-4-4-4-4-4-4-4-----------------]

[---------0--0-0--------0--0-0--------0--0-0----------]
[---------2--2-2--------2--2-2--------2--2-2----------]
[----------------------------------------------6\4/6--]
[--0--0-0--------0--0-0--------0--0-0--------0-x\x/x--]
[--0--0-0--------0--0-0--------0--0-0--------0-4\2/4--]
[--0--0-0--------0--0-0--------0--0-0--------0--------]


[------------------------------------------]
[------------------------------------------]
[--------------------------11-11-----------]
[--4-4-4-4-4-4-4-4-7-7-7-7-11-11-----------]
[--4-4-4-4-4-4-4-4-4-4-4-4--9--9-12p11p10--]
[--4-4-4-4-4-4-4-4-4-4-4-4-----------------]

[-----------------------------------------------]
[-----------------------------------------------]
[-------9\6-4-------9\6-4-------9\6-4--4-6\4/6--]
[--0--0-x\x-x--0--0-x\x-x--0--0-x\x-x--x-x\x/x--]
[--0--0-7\4-2--0--0-7\4-2--0--0-7\4-2--2-4\2/4--]
[--0--0--------0--0--------0--0-----------------]
                                                
Interlude
[--------------------]
[--------------------]
[--------------------]
[--4-----------4-4\--]
[--4-4-4-4-4-4-4-4\--]
[--4-4-4-4-4-4-4-4\--]
     . . . . .
Verse 2
Gtr. 3
[------0~~-----0~~-----0~-----0~-----0~~--]
[--0-------0-------0------0------0--------]
[----6-------6-------7------6------6------]
[-----------------------------------------]
[-----------------------------------------]
[-----------------------------------------]

Then, Gtr. 1
[-------5-5-5-5-5-5-5------5-5-5-5-5-5-5--]
[-------x-x-x-x-x-x-x------x-x-x-x-x-x-x--]
[-------4-4-4-4-4-4-4------6-6-6-6p4-4-4--]
[--4--4---------------0--0----------------]
[--4--4---------------0--0----------------]
[--4--4---------------0--0----------------]

[-----------------------------------5-7-7-9-9/14-14-14--]
[-----------------------------------2-5-5-7-7/10-10-10--]
[-------11-11-11------13-13-13--------------------------]
[--9--9--9--9--9-0--0--9--9--9-4--4---------------------]
[--9--9----------0--0----------4--4---------------------]
[--9--9----------0--0----------4--4---------------------]

(Pre-Chorus)

(Chorus)

Bridge
Gtr. 4
[------------------2-2-2-2-2-2-2-2-0-0-0-0-0-0-0-0-0-0-0-0-0-0-0-0--]2x
[--3-3-3-3-3-3-3-3-3-3-3-3-3-3-3-3-0-0-0-0-0-0-0-0-0-0-0-0-0-0-0-0--]
[--4-4-4-4-4-4-4-4-2-2-2-2-2-2-2-2-2-2-2-2-2-2-2-2-1-1-1-1-1-1-1-1--]
[--4-4-4-4-4-4-4-4-0-0-0-0-0-0-0-0-2-2-2-2-2-2-2-2-2-2-2-2-2-2-2-2--]
[--2-2-2-2-2-2-2-2-----------------0-0-0-0-0-0-0-0-2-2-2-2-2-2-2-2--]
[--------------------------------------------------2-2-2-2-2-2-2-2--]

Then, Gtr. 1
[----------]
[----------]
[----------]
[--0~~~~~--]
[--0~~~~~--]
[--0~~~~~--]

Gtr. 4
[--2-2-2-2-2-2-2-2-2-2-2-2-2-2-2-2--]
[--3-3-3-3-3-3-3-3-3-3-3-3-3-3-3-3--]
[--2-2-2-2-2-2-2-2-2-2-2-2-2-2-2-2--]
[--0-0-0-0-0-0-0-0-0-0-0-0-0-0-0-0--]
[-----------------------------------]
[-----------------------------------]

Then, Gtr. 1
[---------------------------------------------------------------]
[---------------------------------------------------------------]
[---------------------------------------------------------------]
[--4-----------------------------0------------------------------]
[--4-4-4-4-4-4-4-4-4-4-4-4-4-4-4-0-0-0-0-0-0-0-0-0-0-0-0-0-0-0--]
[--4-4-4-4-4-4-4-4-4-4-4-4-4-4-4-0-0-0-0-0-0-0-0-0-0-0-0-0-0-0--]
     . . . . . . . . . . . . . .   . . . . . . . . . . . . . . 
[-------------------------------------------------]
[-------------------------------------------------]
[-------------------------------------------------]
[--9-------------0-------------4----7--7-4-----4--]
[--9-9-9-9-9-9-9-0-0-0-0-0-0-0-4--4-7--7-4-4-4-4--]
[--9-9-9-9-9-9-9-0-0-0-0-0-0-0-4--4-7--7-4-4-4-4--]
     . . . . . .   . . . . . .    .        . . 
[-----------------------------------]
[-----------------------------------]
[-----------------------------------]
[--0-0-0-0-0-0-0-0-9-9-9-9-9-9-9-9--]
[--0-0-0-0-0-0-0-0-7-7-7-7-7-7-7-7--]
[--0-0-0-0-0-0-0-0-7-7-7-7-7-7-7-7--]

[-------------------------------------------------------]
[-------------------------------------------------------]
[-------------------------------------------------------]
[--0-0-0-0-0-0-0-0-9-9-9-9-9-9-9-9-9-9-9-9-9-9-x-x-x-x--]
[--0-0-0-0-0-0-0-0-7-7-7-7-7-7-7-7-7-7-7-7-7-7-x-x-x-x--]
[--0-0-0-0-0-0-0-0-7-7-7-7-7-7-7-7-7-7-7-7-7-7-x-x-x-x--]

(Chorus)

Outro
Gtr. 1
[---------------------------------]
[--9--9-9-9-9-9-9-9--9--9--9--9\--]
[--6--6-6-6-6-6-6-6b-6b-6b-6b-6\--]
[---------------------------------]
[---------------------------------]
[---------------------------------]

Gtr. 2
[------------------------------]
[------------------------------]
[------------------------------]
[--4-4-4-4-4-4-4-4-4-4-4-4-4\--]
[--4-4-4-4-4-4-4-4-4-4-4-4-4\--]
[--4-4-4-4-4-4-4-4-4-4-4-4-4\--]
Добавлено: 09.07.2012
Другие материалы по этой песне:
  • Аккорды и текст

Страница создана 01.05.2012
http://primanota.ru/emery/the-party-song-chords.htm
Привет, Гость.
Предлагаем пройти революционный курс по гитаре.
Подарок от PrimaNota.Ru, забирай!