PrimaNota.ru - самый крупный в мире бесплатный архив песенных текстов, аккордов, табулатур и нот


Emery - The Anchors - текст песни, таба, видео

Регистрация Запомнить меня
Войти через:  Facebook Google Twitter Vk Yandex Mail.ru

Emery - The Anchors - текст песни, таба, видео

Печатать
Просмотров: 105
Emery
The Anchors
Drop C   ( C G C F A D )

I'm not the greatest at tabbing by ear, so it's probably not 100% perfect, but I got 
most of it pretty close at least.


  [0:00] Intro   "And it hurt just to touch..."
  Guitar 1
D|-----------------------------------------------------------------------------|
A|----5~------2~-------5~------2~------5~-----2~------5~-----------------------|
F|----6~------2~-------6~------2~------6~-----2~------6~-----------------------|
C|----6~------2~-------6~------2~------6~-----2~------6~-----------------------|
G|----4~------0~-------4~------0~------4~-----0~------4~-----------------------|
C|-----------------------------------------------------------------------------|



  [0:19] Verse 1A   "Some things will never surface..."
  Guitar 1
D|-----------------------------------------------------------------------------|
A|-------5---4h5----5---4---4h5----------5---4h5----5---4---4h5----------------|
F|---------6----------6---6-----6----------6----------6---6-----6--------------|
C|-----------------------------------------------------------------------------|
G|---4-4----------4------------------0-0----------0----------------------------|
C|-----------------------------------------------------------------------------|

D|-----------------------------------------------------------------------------|
A|-----------------------------------------------------------------------------|
F|-------9---8h9----9---8---8h9----------9---8h9----11-11-11-11-11-11-11-11----|
C|---------9----------9---9-----9----------9-----9--x--x--x--x--x--x--x--x-----|
G|---7-7----------7------------------9-9------------9--9--9--9--9--9--9--9-----|
C|-----------------------------------------------------------------------------|

  Guitar 2
D|-----------------------------------------------------------------------------|
A|-----------------------------------------------------------------------------|
F|----666666666666----222222222222---------------------------------------------|
C|----666666666666----222222222222----222222222222----444444444444-------------|
G|----444444444444----000000000000----222222222222----444444444444-------------|
C|------------------------------------222222222222----444444444444-------------|



  [0:30] Verse 1B    "Those things that we thought..."
  Guitar 1
D|-----------------------------------------------------------------------------|
A|-----------------------------------------------------------------------------|
F|--6-6-x-x--6-6-x-x--2-2-x-x--2-2-x-x--6-6-x-x--6-6-x-x--7-7-x-x--7-7-x-x-----|
C|--6-6-x-x--6-6-x-x--2-2-x-x--2-2-x-x--6-6-x-x--6-6-x-x--7-7-x-x--7-7-x-x-----|
G|--4-4-x-x--4-4-x-x--0-0-x-x--0-0-x-x--4-4-x-x--4-4-x-x--5-5-x-x--5-5-x-x-----|
C|-----------------------------------------------------------------------------|

  Guitar 2
D|--12-12-12-12-12-12-\-7-7-7-7-7-7-/-12-12-12-12-12-12-/-14-14-14-14-14-14----|
A|--14-14-14-14-14-14-\-9-9-9-9-9-9-/-14-14-14-14-14-14-/-16-16-16-16-16-16----|
F|--13-13-13-13-13-13-\-9-9-9-9-9-9-/-13-13-13-13-13-13-/-16-16-16-16-16-16----|
C|-----------------------------------------------------------------------------|
G|-----------------------------------------------------------------------------|
C|-----------------------------------------------------------------------------|



  [0:37] Verse 1C    "From your birth you were born into this..."
  Guitar 1
D|-----------------------------------------------------------------------------|
A|-------5---4h5----5---4---4h5----------5---4h5----5---4---4h5----------------|
F|---------6----------6---6-----6----------6----------6---6-----6--------------|
C|-----------------------------------------------------------------------------|
G|---4-4----------4------------------0-0----------0----------------------------|
C|-----------------------------------------------------------------------------|

D|-----------------------------------------------------------------------------|
A|-----------------------------------------------------------------------------|
F|-------9---8h9----9---8---8h9----------9---8h9----11-11-11-11-11-11-11-11----|
C|---------9----------9---9-----9----------9-----9--x--x--x--x--x--x--x--x-----|
G|---7-7----------7------------------9-9------------9--9--9--9--9--9--9--9-----|
C|-----------------------------------------------------------------------------|

  Guitar 2
D|-----------------------------------------------------------------------------|
A|-----------------------------------------------------------------------------|
F|----666666666666----222222222222---------------------------------------------|
C|----666666666666----222222222222----222222222222----444444444444-------------|
G|----444444444444----000000000000----222222222222----444444444444-------------|
C|------------------------------------222222222222----444444444444-------------|



  [0:48] Verse 1D    "Those things that we thought..."
  Guitar 1
D|-----------------------------------------------------------------------------|
A|-----------------------------------------------------------------------------|
F|--6-6-x-x--6-6-x-x--2-2-x-x--2-2-x-x--6-6-x-x--6-6-x-x--7-7-x-x--7-7-x-x-----|
C|--6-6-x-x--6-6-x-x--2-2-x-x--2-2-x-x--6-6-x-x--6-6-x-x--7-7-x-x--7-7-x-x-----|
G|--4-4-x-x--4-4-x-x--0-0-x-x--0-0-x-x--4-4-x-x--4-4-x-x--5-5-x-x--5-5-x-x-----|
C|-----------------------------------------------------------------------------|

  Guitar 2
D|--12-12-12-12-12-12-\-7-7-7-7-7-7-/-12-12-12-12-12-12-/-14-14-14-14-14-14----|
A|--14-14-14-14-14-14-\-9-9-9-9-9-9-/-14-14-14-14-14-14-/-16-16-16-16-16-16----|
F|--13-13-13-13-13-13-\-9-9-9-9-9-9-/-13-13-13-13-13-13-/-16-16-16-16-16-16----|
C|-----------------------------------------------------------------------------|
G|-----------------------------------------------------------------------------|
C|-----------------------------------------------------------------------------|



  [0:55] Chorus 1A    "I want to explain this..."
  Guitar 1
D|-----------------------------------------------------------------------------|
A|---------------------------9---7-------------------------------9---7---------|
F|--6---8---9---8----6---8-----6-------6---8---9h11p9----9---8-----6---6-------|
C|----6---6---6---6----6---6-------6-----6---6--------6----6---6---------------|
G|-----------------------------------------------------------------------------|
C|-----------------------------------------------------------------------------|
   ^^This line can also be played as:
D|-----------------------------------------------------------------------------|
A|-----------------------------------------------------------------------------|
F|-6-1-8-1-9-1-8-1--6-1-8-1-13-1-11-1--6-1-8-1-9h11p9-1--9-1-8-1-13-1-11-1-----|
C|-----------------------------------------------------------------------------|
G|--^^ Hold down the 1st fret with the left hand, tap with the right ^^--------|
C|-----------------------------------------------------------------------------|

D|-12-0-11-0-9-0-7-0--12-0-11-0-9-0-7-0--12-0-11-0-9-0-7-0--5-0-4-0-2h4p2p0----|
A|-----------------------------------------------------------------------------|
F|---^^ All hammer-ons and pull-offs / tapping ^^------------------------------|
C|-----------------------------------------------------------------------------|
G|-----------------------------------------------------------------------------|
C|-----------------------------------------------------------------------------|

  Guitar 2
D|-----------------------------------------------------------------------------|
A|--(5-5-5-5-5-5-5-5-5-5-5-5-5-5-5-5)-(2-2-2-2-2-2-2-2-2-2-2-2-2-2-2-2)--------|
F|---6-6-6-6-6-6-6-6-6-6-6-6-6-6-6-6---2-2-2-2-2-2-2-2-2-2-2-2-2-2-2-2---------|
C|---6-6-6-6-6-6-6-6-6-6-6-6-6-6-6-6---2-2-2-2-2-2-2-2-2-2-2-2-2-2-2-2---------|
G|---4-4-4-4-4-4-4-4-4-4-4-4-4-4-4-4---0-0-0-0-0-0-0-0-0-0-0-0-0-0-0-0---------|
C|-----------------------------------------------------------------------------|

D|-----------------------------------------------------------------------------|
A|--(9-9-9-9-9-9-9-9-9-9-9-9-9-9-9-9)-(4-4-4-4-4-4-4-4-4-4-4-4-4-4-4-4)--------|
F|---9-9-9-9-9-9-9-9-9-9-9-9-9-9-9-9---4-4-4-4-4-4-4-4-4-4-4-4-4-4-4-4---------|
C|---9-9-9-9-9-9-9-9-9-9-9-9-9-9-9-9---4-4-4-4-4-4-4-4-4-4-4-4-4-4-4-4---------|
G|---7-7-7-7-7-7-7-7-7-7-7-7-7-7-7-7---2-2-2-2-2-2-2-2-2-2-2-2-2-2-2-2---------|
C|-----------------------------------------------------------------------------|



  [1:06] Chorus 1B    "It claimed both of our lives..."
  Guitar 1
D|-----------------------------------------------------------------------------|
A|---------------------------9---7-------------------------------9---7---------|
F|--6---8---9---8----6---8-----6-------6---8---9h11p9----9---8-----6---6-------|
C|----6---6---6---6----6---6-------6-----6---6--------6----6---6---------------|
G|-----------------------------------------------------------------------------|
C|-----------------------------------------------------------------------------|
   ^ or v
D|-----------------------------------------------------------------------------|
A|-----------------------------------------------------------------------------|
F|-6-1-8-1-9-1-8-1--6-1-8-1-13-1-11-1--6-1-8-1-9h11p9-1--9-1-8-1-13-1-11-1-----|
C|-----------------------------------------------------------------------------|
G|--^^ Hold down the 1st fret with the left hand, tap with the right ^^--------|
C|-----------------------------------------------------------------------------|

D|---------------------------------------12-0-11-0-9-7-0--5-4-5-4-5-4-5-4------|
A|-----------------------------------------------------------------------------|
F|-13-1-11-1-9-1-8-1--13-1-11-1-9-1-8-1----------------------------------------|
C|-----------------------------------------------------------------------------|
G|-----------------------------------------------------------------------------|
C|-----------------------------------------------------------------------------|

  Guitar 2
D|-----------------------------------------------------------------------------|
A|--(5-5-5-5-5-5-5-5-5-5-5-5-5-5-5-5)-(2-2-2-2-2-2-2-2-2-2-2-2-2-2-2-2)--------|
F|---6-6-6-6-6-6-6-6-6-6-6-6-6-6-6-6---2-2-2-2-2-2-2-2-2-2-2-2-2-2-2-2---------|
C|---6-6-6-6-6-6-6-6-6-6-6-6-6-6-6-6---2-2-2-2-2-2-2-2-2-2-2-2-2-2-2-2---------|
G|---4-4-4-4-4-4-4-4-4-4-4-4-4-4-4-4---0-0-0-0-0-0-0-0-0-0-0-0-0-0-0-0---------|
C|-----------------------------------------------------------------------------|

D|-----------------------------------------------------------------------------|
A|-----------------------------------------------------------------------------|
F|-----------------------------------------------------------------------------|
C|---2-2-2-2-2-2-2-2-2-2-2-2-2-2-2-2---4-4-4-4-4-4-4-4-4-4-4-4-4-4-4-4---------|
G|---2-2-2-2-2-2-2-2-2-2-2-2-2-2-2-2---4-4-4-4-4-4-4-4-4-4-4-4-4-4-4-4---------|
C|---2-2-2-2-2-2-2-2-2-2-2-2-2-2-2-2---4-4-4-4-4-4-4-4-4-4-4-4-4-4-4-4---------|



  [1:17] Breakdown 1  "Will words define me?"
  Guitar 1
D|-----------------------------------------------------------------------------|
A|-----------------------------------------------------Guitar 2 comes in here--|
F|-----------------------------------------------------------------v-----------|
C|-0-0~--0-0-0~--0-0-0-0~--0-0~--000000--0-0~--0-0~--0-0-0-0~--0-0~--000000----|
G|-0-0~--0-0-0~--0-0-0-0~--0-0~--000000--0-0~--0-0~--0-0-0-0~--0-0~--000000----|
C|-0-0~--0-0-0~--0-0-0-0~--0-0~--000000--0-0~--0-0~--0-0-0-0~--0-0~--000000----|

D|-----------------------------------------------------------------------------|
A|-----------------------------------------------------------------------------|
F|-----------v-------------v------------------------------v--------------------|
C|-0-0~--0-0~--0-0~--0-0~--000000-0-0~--0-0~--0-0~--0-0~--00000000000000000000-|
G|-0-0~--0-0~--0-0~--0-0~--000000-0-0~--0-0~--0-0~--0-0~--00000000000000000000-|
C|-0-0~--0-0~--0-0~--0-0~--000000-0-0~--0-0~--0-0~--0-0~--00000000000000000000-|

  Guitar 2
D|-----------------------------------------------------------------------------|
A|-----------------------------------------------------------------------------|
F|-----------------------------------------------------------------7~----------|
C|-----------------------------------------------------------------7~----------|
G|-----------------------------------------------------------------------------|
C|-----------------------------------------------------------------------------|

D|-----------------------------------------------------------------------------|
A|-----------------------------------------------------------------------------|
F|---------------4-------------12~----------------------------12~--------------|
C|-----6---4---6---6-----------13~---------------------000000-13~-000000000000-|
G|-------4---4-------4---------------------------------000000-----000000000000-|
C|-----------------------------------------------------000000-----000000000000-|



  [1:40] Verse 2A   "And the beauty left my eyes..."
  Guitar 1
D|-----------------------------------------------------------------------------|
A|-----------------------------------------------------------------------------|
F|--4-4-4-4-4---4-4-4-4-4---1-1-1-1-1---2-2-2-2-2------------------------------|
C|--6-6-6-6-6---6-6-6-6-6---2-2-2-2-2---2-2-2-2-2------------------------------|
G|--4-4-4-4-4---4-4-4-4-4---0-0-0-0-0---2-2-2-2-2------------------------------|
C|-----------------------------------------------------------------------------|

D|--Guitar 2 comes in here-----------------------------------------------------|
A|--v--------------------------------------------------------------------------|
F|--4-4-4-4-4---4-4-4-4-4---1-1-1-1-1------------------------------------------|
C|--6-6-6-6-6---6-6-6-6-6---2-2-2-2-2---4-4-4-4-4------------------------------|
G|--4-4-4-4-4---4-4-4-4-4---0-0-0-0-0---4-4-4-4-4------------------------------|
C|--------------------------------------4-4-4-4-4------------------------------|

  Guitar 2
D|-----------------------------------------------------------------------------|
A|--9-9-9-9-9---9-9-9-9-9---7-7-7-7-7---7-7-7-7-7------------------------------|
F|--9-9-9-9-9---9-9-9-9-9---6-6-6-6-6---6-6-6-6-6------------------------------|
C|--6-6-6-6-6---6-6-6-6-6---4-4-4-4-4---4-4-4-4-4------------------------------|
G|-----------------------------------------------------------------------------|
C|-----------------------------------------------------------------------------|



  [1:48] Verse 2B    x3    "Knowing I would never be the same..."
  Guitar 1
D|-----------------------------------------------------------------------------|
A|-----------------------------------------------------------------------------|
F|--4-4-4-4-4---4-4-4-4-4---1-1-1-1-1---2-2-2-2-2------------------------------|
C|--6-6-6-6-6---6-6-6-6-6---2-2-2-2-2---2-2-2-2-2------------------------------|
G|--4-4-4-4-4---4-4-4-4-4---0-0-0-0-0---2-2-2-2-2------------------------------|
C|-----------------------------------------------------------------------------|

D|-----------------------------------------------------------------------------|
A|-----------------------------------------------------------------------------|
F|--1-1-1-1-1---1-1-1-1-1------------------------------------------------------|
C|--2-2-2-2-2---2-2-2-2-2---4-4-4-4-4---4-4-4-4-4------------------------------|
G|--0-0-0-0-0---0-0-0-0-0---4-4-4-4-4---4-4-4-4-4------------------------------|
C|--------------------------4-4-4-4-4---4-4-4-4-4------------------------------|

  Guitar 2
D|-----------------------------------------------------------------------------|
A|--9-9-9-9-9---9-9-9-9-9---5-5-5-5-5---7-7-7-7-7------------------------------|
F|--9-9-9-9-9---9-9-9-9-9---4-4-4-4-4---6-6-6-6-6------------------------------|
C|--6-6-6-6-6---6-6-6-6-6---2-2-2-2-2---4-4-4-4-4------------------------------|
G|-----------------------------------------------------------------------------|
C|-----------------------------------------------------------------------------|

D|----------7-----------7-----------7-----------7------------------------------|
A|------9-----------9-----------9-----------9----------------------------------|
F|--9-----------9-----------9-----------9--------------------------------------|
C|-----------------------------------------------------------------------------|
G|-----------------------------------------------------------------------------|
C|-----------------------------------------------------------------------------|



  [2:11]  Verse 2C    "Tell her I'm sorry..."
  Guitar 1                 x3
D|--------------------------------|--------------------------------------------|
A|--------------------------------|--------------------------------------------|
F|--4--4--4---2--2--2-------------|---4--4--4---2--2--2---4-4-4-4-4-4-4-4-4-4--|
C|--6--6--6---2--2--2---4--4--4---|---6--6--6---2--2--2---4-4-4-4-4-4-4-4-4-4--|
G|--4--4--4---2--2--2---4--4--4---|---4--4--4---2--2--2---4-4-4-4-4-4-4-4-4-4--|
C|----------------------4--4--4---|--------------------------------------------|

  Guitar 2                 x3
D|--7--7--7---7--7--7---7--7--7---|---7--7--7---7--7--7---9--9--9--9--9--9--9--|
A|--9--9--9---9--9--9---9--9--9---|---9--9--9---9--9--9---11-11-11-11-11-11-11-|
F|--9--9--9---8--8--8---9--9--9---|---9--9--9---8--8--8---11-11-11-11-11-11-11-|
C|--------------------------------|--------------------------------------------|
G|--------------------------------|--------------------------------------------|
C|--------------------------------|--------------------------------------------|



  [2:25]  Breakdown 2    "Guilty..."
  Guitar 1
D|-----------------------------------------------------------------------------|
A|-----------------------------------------------------------------------------|
F|-----------------------------------------------------------------------------|
C|--4-4~--4-4-4-4-4---4-4~--4-4-4-4-4---4-4~--4-4-4-4-4---4-4~--4-4~-----------|
G|--4-4~--4-4-4-4-4---4-4~--4-4-4-4-4---4-4~--4-4-4-4-4---4-4~--4-4~-----------|
C|--4-4~--4-4-4-4-4---4-4~--4-4-4-4-4---4-4~--4-4-4-4-4---4-4~--4-4~-----------|

  Guitar 2   x4
D|-------12-------12-------12-------12-----------------------------------------|
A|----10-------10-------10-------10-------10----10-----------------------------|
F|-13-------13-------13-------13-------13----13--------------------------------|
C|-----------------------------------------------------------------------------|
G|-----------------------------------------------------------------------------|
C|-----------------------------------------------------------------------------|



  [2:34]  Interlude
  Guitar 1
D|-------0--0~--0~---------------------------0---0~---0~-----------------------|
A|----------2~--0~----2--2--2--5~----------------2~---0~----2--2--2--5~--------|
F|----2-----1~--1~----2--2--2--4~---------2------1~---1~----2--2--2--4~--------|
C|-4------------2~----2--2--2--6~------4--------------2~----2--2--2--6~--------|
G|-----------------------------------------------------------------------------|
C|-----------------------------------------------------------------------------|

  Guitar 2
D|-------12----------------------------12-12-12--12~---------------------------|
A|----10----14~-12~---10-10-10-12~-----14-14-14--10~--------10-10-10-12~-------|
F|-13----------------------------------13-13-13--11~--------11-11-11-13~-------|
C|-----------------------------------------------------------------------------|
G|-----------------------------------------------------------------------------|
C|-----------------------------------------------------------------------------|



  [2:50]  Bridge  x2    "How were those words in my head?"
  Guitar 1
D|-----------------------------------------------------------------------------|
A|--------------------3-3-3-3-3-3-3-3------------------------------------------|
F|--6-6-6-6-6-6-6-6---2-2-2-2-2-2-2-2------------------------------------------|
C|--6-6-6-6-6-6-6-6---0-0-0-0-0-0-0-0---4-4-4-4-4-4-4-4---0-0-0-0-0-0-0-0------|
G|--4-4-4-4-4-4-4-4---0-0-0-0-0-0-0-0---4-4-4-4-4-4-4-4---0-0-0-0-0-0-0-0------|
C|--------------------0-0-0-0-0-0-0-0---4-4-4-4-4-4-4-4---0-0-0-0-0-0-0-0------|

  Guitar 2
D|----------------------------------------------------------------------9-9-9-9|
A|----------------------------------------------------------------------x-x-x-x|
F|-6-6-6-6-6-6-6-6---7-7-7-7-7-7-7-7---11-11-11-11-11-11-11-11--7-7-7-7-6-6-6-6|
C|-6-6-6-6-6-6-6-6---7-7-7-7-7-7-7-7---11-11-11-11-11-11-11-11--7-7-7-7--------|
G|-4-4-4-4-4-4-4-4---5-5-5-5-5-5-5-5---9--9--9--9--9--9--9--9---5-5-5-5--------|
C|-----------------------------------------------------------------------------|



  [3:11] Chorus 2A    "I want to explain this..."
  Guitar 1
D|-----------------------------------------------------------------------------|
A|---------------------------9---7-------------------------------9---7---------|
F|--6---8---9---8----6---8-----6-------6---8---9h11p9----9---8-----6---6-------|
C|----6---6---6---6----6---6-------6-----6---6--------6----6---6---------------|
G|-----------------------------------------------------------------------------|
C|-----------------------------------------------------------------------------|
   ^^This line can also be played as:
D|-----------------------------------------------------------------------------|
A|-----------------------------------------------------------------------------|
F|-6-1-8-1-9-1-8-1--6-1-8-1-13-1-11-1--6-1-8-1-9h11p9-1--9-1-8-1-13-1-11-1-----|
C|-----------------------------------------------------------------------------|
G|--^^ Hold down the 1st fret with the left hand, tap with the right ^^--------|
C|-----------------------------------------------------------------------------|

D|-12-0-11-0-9-0-7-0--12-0-11-0-9-0-7-0---5-0-4-0-2-0-4-0--5-0-4-0-2h4p2p0-----|
A|-----------------------------------------------------------------------------|
F|---^^ All hammer-ons and pull-offs / tapping ^^------------------------------|
C|-----------------------------------------------------------------------------|
G|-----------------------------------------------------------------------------|
C|-----------------------------------------------------------------------------|

  Guitar 2
D|-----------------------------------------------------------------------------|
A|--(5-5-5-5-5-5-5-5-5-5-5-5-5-5-5-5)-(2-2-2-2-2-2-2-2-2-2-2-2-2-2-2-2)--------|
F|---6-6-6-6-6-6-6-6-6-6-6-6-6-6-6-6---2-2-2-2-2-2-2-2-2-2-2-2-2-2-2-2---------|
C|---6-6-6-6-6-6-6-6-6-6-6-6-6-6-6-6---2-2-2-2-2-2-2-2-2-2-2-2-2-2-2-2---------|
G|---4-4-4-4-4-4-4-4-4-4-4-4-4-4-4-4---0-0-0-0-0-0-0-0-0-0-0-0-0-0-0-0---------|
C|-----------------------------------------------------------------------------|

D|-----------------------------------------------------------------------------|
A|--(9-9-9-9-9-9-9-9-9-9-9-9-9-9-9-9)-(4-4-4-4-4-4-4-4-4-4-4-4-4-4-4-4)--------|
F|---9-9-9-9-9-9-9-9-9-9-9-9-9-9-9-9---4-4-4-4-4-4-4-4-4-4-4-4-4-4-4-4---------|
C|---9-9-9-9-9-9-9-9-9-9-9-9-9-9-9-9---4-4-4-4-4-4-4-4-4-4-4-4-4-4-4-4---------|
G|---7-7-7-7-7-7-7-7-7-7-7-7-7-7-7-7---2-2-2-2-2-2-2-2-2-2-2-2-2-2-2-2---------|
C|-----------------------------------------------------------------------------|



  [3:21] Chorus 2B    "It claimed both of our lives..."
  Guitar 1
D|-----------------------------------------------------------------------------|
A|---------------------------9---7-------------------------------9---7---------|
F|--6---8---9---8----6---8-----6-------6---8---9h11p9----9---8-----6---6-------|
C|----6---6---6---6----6---6-------6-----6---6--------6----6---6---------------|
G|-----------------------------------------------------------------------------|
C|-----------------------------------------------------------------------------|
   ^ or v
D|-----------------------------------------------------------------------------|
A|-----------------------------------------------------------------------------|
F|-6-1-8-1-9-1-8-1--6-1-8-1-13-1-11-1--6-1-8-1-9h11p9-1--9-1-8-1-13-1-11-1-----|
C|-----------------------------------------------------------------------------|
G|--^^ Hold down the 1st fret with the left hand, tap with the right ^^--------|
C|-----------------------------------------------------------------------------|

D|---------------------------------------12-0-11-0-9-7-0--5-4-5-4-5-4-5-4------|
A|-----------------------------------------------------------------------------|
F|-13-1-11-1-9-1-8-1--13-1-11-1-9-1-8-1----------------------------------------|
C|-----------------------------------------------------------------------------|
G|-----------------------------------------------------------------------------|
C|-----------------------------------------------------------------------------|

  Guitar 2
D|-----------------------------------------------------------------------------|
A|--(5-5-5-5-5-5-5-5-5-5-5-5-5-5-5-5)-(2-2-2-2-2-2-2-2-2-2-2-2-2-2-2-2)--------|
F|---6-6-6-6-6-6-6-6-6-6-6-6-6-6-6-6---2-2-2-2-2-2-2-2-2-2-2-2-2-2-2-2---------|
C|---6-6-6-6-6-6-6-6-6-6-6-6-6-6-6-6---2-2-2-2-2-2-2-2-2-2-2-2-2-2-2-2---------|
G|---4-4-4-4-4-4-4-4-4-4-4-4-4-4-4-4---0-0-0-0-0-0-0-0-0-0-0-0-0-0-0-0---------|
C|-----------------------------------------------------------------------------|

D|-----------------------------------------------------------------------------|
A|-----------------------------------------------------------------------------|
F|-----------------------------------------------------------------------------|
C|---2-2-2-2-2-2-2-2-2-2-2-2-2-2-2-2---4-4-4-4-4-4-4-4-4-4-4-4-4-4-4-4---------|
G|---2-2-2-2-2-2-2-2-2-2-2-2-2-2-2-2---4-4-4-4-4-4-4-4-4-4-4-4-4-4-4-4---------|
C|---2-2-2-2-2-2-2-2-2-2-2-2-2-2-2-2---4-4-4-4-4-4-4-4-4-4-4-4-4-4-4-4---------|



  [3:32]  Outro    "The bitter treasure so elementary."
  Guitars 1&2
D|-----------------------------------------------------------------------------|
A|--5-5-5-5-x--5-5-x---5-5-5-5-x---0-0-x---2-2~--------------------------------|
F|--4-4-4-4-x--4-4-x---4-4-4-4-x---1-1-x---2-2~--------------------------------|
C|--6-6-6-6-x--6-6-x---6-6-6-6-x---2-2-x---2-2~--------------------------------|
G|--4-4-4-4-x--4-4-x---4-4-4-4-x---0-0-x---2-2~--------------------------------|
C|-----------------------------------------------------------------------------|
Добавлено: 09.09.2013
Другие материалы по этой песне:
  • Аккорды и текст

Страница создана 09.09.2013
http://primanota.ru/emery/the-anchors-chords.htm
Привет, Гость.
Предлагаем пройти революционный курс по гитаре.
Подарок от PrimaNota.Ru, забирай!