PrimaNota.ru - самый крупный в мире бесплатный архив песенных текстов, аккордов, табулатур и нот


Emery - Returning The Smile Youve Had From The Start - текст песни, таба, видео

Регистрация Запомнить меня
Войти через:  Facebook Google Twitter Vk Yandex Mail.ru

Emery - Returning The Smile Youve Had From The Start - текст песни, таба, видео

Печатать
Просмотров: 99
Уроки эстрадного вокала в Санкт-Петербурге
another adam k song, hes great at tabbing shit out, 
Intro
Gtr. 2
D#|------------------------------------------------------|
A#|------------------------------------------------------|
F#|------------------------------------------------------|
C#|-0-0/0-0--0-0/0-0--0-0/0-0----------------------------|
G#|-0-0/0-0--0-0/0-0--0-0/0-0--0h5h8-0h5h7-0h5h8-0h8h10--|x2
C#|-0-0/0-0--0-0/0-0--0-0/0-0----------------------------|
    . ... .  . ... .  . ... .
Gtr. 1
D#|-----------------|
A#|-----------------|
F#|-7----9----10----|
C#|-x----x-----x----|x2
G#|-5----7-----8----|
C#|-----------------|
Verse 1
Gtr. 2
D#|-10--8-8-8-8-8-8-8-8-8-8-8-8----------8-----10--8-8-8-8-8-8-8-8-8-8-8-8---|
A#|---6--6-6-6-6-6-6-6-6-5-5-5-5-3s5/6p5--6------6--6-6-6-6-6-6-6-6-5-5-5-5--|
F#|--------------------------------------------------------------------------|
C#|--------------------------------------------------------------------------|
G#|--------------------------------------------------------------------------|
C#|--------------------------------------------------------------------------|

Gtr. 1
D#|-10--8--8--8--8--8--8--8--8--8-8-8-8----------8---8-8-8-8-8-8-8-8--13--12-|
A#|---6--10-10-10-10-10-10-10-10-5-5-5-5-3s5/6p5--6---6-6-6-6-6-6-6-6--13x-13|
F#|------10-10-10-10-10-10-10-10---------------------------------------------|
C#|--------------------------------------------------------------------------|
G#|--------------------------------------------------------------------------|
C#|--------------------------------------------------------------------------|
Repeat Verse

Chorus/Interlude/Whatever
Bass and Keyboard to start
(The Bass part goes like this C#[-5----3----0----0----0----])
Then...

Gtr. 1
D#|-----------------|
A#|-----------------|
F#|-7----9----10----|
C#|-x----x-----x----|
G#|-5----7-----8----|
C#|-----------------|

Intro
Verse 2
Gtr. 2
D#|-10--8-8-8-8-8-8-8-8-8-8-8-8----------8-----10--8-8-8-8-8-8-8-8-8-8-8-8---|
A#|---6--6-6-6-6-6-6-6-6-5-5-5-5-3s5/6p5--6------6--6-6-6-6-6-6-6-6-5-5-5-5--|
F#|--------------------------------------------------------------------------|
C#|--------------------------------------------------------------------------|
G#|--------------------------------------------------------------------------|
C#|--------------------------------------------------------------------------|



Gtr. 1
D#|-10--8--8--8--8--8--8--8--8--8-8-8-8----------8---8-8-8-8-8-8-8-8--13--12-|
A#|---6--10-10-10-10-10-10-10-10-5-5-5-5-3s5/6p5--6---6-6-6-6-6-6-6-6--13x-13|
F#|------10-10-10-10-10-10-10-10---------------------------------------------|
C#|--------------------------------------------------------------------------|
G#|--------------------------------------------------------------------------|
C#|--------------------------------------------------------------------------|

Then
Gtr. 2
D#|-10--8-8-8-8-8-8-8-8-8-8-8-8----------8-----10--8-8-8-8-8-8-8-8-8-8-8-8---|
A#|---6--6-6-6-6-6-6-6-6-5-5-5-5-3s5/6p5--6------6--6-6-6-6-6-6-6-6-5-5-5-5--|
F#|--------------------------------------------------------------------------|
C#|--------------------------------------------------------------------------|
G#|--------------------------------------------------------------------------|
C#|--------------------------------------------------------------------------|

Gtr. 1
D#|-10--8--8--8--8--8--8--8--8--8s10/12-13p12/13p12-10----13--12---13--12---|
A#|---6--10-10-10-10-10-10-10-10----------------------13---13x--13--13x-13--|
F#|------10-10-10-10-10-10-10-10--------------------------------------------|
C#|-------------------------------------------------------------------------|
G#|-------------------------------------------------------------------------|
C#|-------------------------------------------------------------------------|

D#|-12------12------13--12---|
A#|---13-10---13-10--13x-13--|
F#|--------------------------|
C#|--------------------------|
G#|--------------------------|
C#|--------------------------|

Chorus/Interlude/Whatever 2
Bass and Keyboard again
Then....
D#|---------------------|
A#|---------------------|
F#|-7----9----2----6----|
C#|-x----x----x----x----|
G#|-5----7----0----4----|
C#|---------------------|

Interlude
Gtr. 1
D#|--------------------------------------------------|
A#|-------------------8----------------------8-10----|
F#|-7-5---7-----9-7-5----5--7-5---7-----10-9---------|
C#|-----7---5-3-----------------5---5-3--------------|
G#|--------------------------------------------------|
C#|--------------------------------------------------|

Then
Gtr. 1
D#|--------------------------------------------------|
A#|-------------------8----------------------8-10----|
F#|-7-5---7-----9-7-5----5--7-5---7-----10-9---------|
C#|-----7---5-3-----------------5---5-3--------------|
G#|--------------------------------------------------|
C#|--------------------------------------------------|

Gtr. 2
D#|--------------------------------------------------|
A#|--------------------------------------------------|
F#|-------------5------9-----------------7-5-9-10----|
C#|-7-5-3-7-------5-3----7--7-5-3-7------------------|
G#|---------7-5---------------------7-5--------------|
C#|--------------------------------------------------|
Bridge
Gtr. 2
D#|--------------------|
A#|--------------------|
F#|--------------------|
C#|-14/14/14-15/15/15--|
G#|-12/12/12-12/12/12--|x8
C#|-12/12/12-12/12/12--|
Then
D#|-------------|
A#|-------------|
F#|-------------|
C#|-8sd0--5--3--|
G#|-8sd0--5--3--|x4
C#|-8sd0--5--3--|

Then
D#|--------------------|
A#|--------------------|
F#|--------------------|
C#|-14/14/14-15/15/15--|
G#|-12/12/12-12/12/12--|x5
C#|-12/12/12-12/12/12--|
Then
D#|-------------|
A#|-------------|
F#|-------------|
C#|-8sd0--5--3--|
G#|-8sd0--5--3--|x8
C#|-8sd0--5--3--|

Ending
Gtr. 2
D#|------------------------------------------------------|
A#|------------------------------------------------------|
F#|------------------------------------------------------|
C#|-0-0/0-0--0-0/0-0--0-0/0-0----------------------------|
G#|-0-0/0-0--0-0/0-0--0-0/0-0--0h5h8-0h5h7-0h5h8-0h8h10--|x2
C#|-0-0/0-0--0-0/0-0--0-0/0-0----------------------------|
    . ... .  . ... .  . ... .
Gtr. 1
D#|-----------------|
A#|-----------------|
F#|-7----9----10----|
C#|-x----x-----x----|x2
G#|-5----7-----8----|
C#|-----------------|



Then
Gtr. 2
D#|---------------------------------|
A#|---------------------------------|
F#|---------------------------------|
C#|-0-0/0-0--0-0/0-0--0-0/0-0--0----|
G#|-0-0/0-0--0-0/0-0--0-0/0-0--0----|
C#|-0-0/0-0--0-0/0-0--0-0/0-0--0----|
    . ... .  . ... .  . ... .
Gtr. 1
D#|-----------------------|
A#|-----------------------|
F#|-7----9----10----14----|
C#|-x----x-----x-----x----|
G#|-5----7-----8----12----|
C#|-----------------------|


Tabbed by Adam K 
Добавлено: 23.06.2012
Другие материалы по этой песне:
  • Аккорды и текст

Страница создана 23.06.2012
http://primanota.ru/emery/returning-the-smile-youve-had-from-the-start-chords.htm
Привет, Гость.
Предлагаем пройти революционный курс по гитаре.
Подарок от PrimaNota.Ru, забирай!