PrimaNota.ru - самый крупный в мире бесплатный архив песенных текстов, аккордов, табулатур и нот


Emery - Miss Behavin - текст песни, бас-таба, видео

Регистрация Запомнить меня
Войти через:  Facebook Google Twitter Vk Yandex Mail.ru

Emery - Miss Behavin - текст песни, бас-таба, видео

Печатать
Просмотров: 113
Emery-Miss Behavin'
From:The Question
Copyright © 2005 Tooth and Nail Records
Drop C# Tuning C#-G#-C#-F#
Tabbed by: Fearisg0ne

sd=slide down
h=hammer on
p=pull off
s=slide
pm= palm mute
b=bend

Not 100% on the correctness of these tabs, I transposed it from the rhythm guitar part's 
I found. If those were correct then you should be able to get by playing this as the 
Hope you enjoy it!


Intro
F#[-9/9/9-9/9/9-9/9/9-9/9/9-9/9/9-9/9/9-9/9/9-9/9/9-]x2
C#[-------------------------------------------------]
G#[-------------------------------------------------]
C#[-------------------------------------------------]

Then
F#[-9/9/9-9/9/9-9/9/9-9/9/9-9/9/9-9/9/9-9/9/9-9/9/9-]x2
C#[-------------------------------------------------]
G#[-------------------------------------------------]
C#[-------------------------------------------------]


F#[--9/9/9/9-9/9/9-9/9/9-9/9/9--9/-9/-9--9/-9/-9--9/-9/-9--9/-9/-9-]
C#[----------------------------------------------------------------]
G#[----------------------------------------------------------------]
C#[----------------------------------------------------------------]

Verse 1


F#[---9----7-4---------7-4---]
C#[-------------7------------]
G#[----------------5---------]
C#[--------------------------]

F#[---9----7-4-----------7-4----]
C#[-------------7--9------------]
G#[-------------------5---------]
C#[-----------------------------]


Then


F#[--------------------]
C#[--------------------]
G#[--9----2--5/7/-9----]
C#[--------------------]

Then

F#[---6---]
C#[-------]
C#[-------]
C#[-------]

Interlude
F#[----------------------------------]
C#[----------------------------------]
G#[-2-2-2-2-5-5-5-5-7-7-7-7-7-7-7-7--]x5
C#[----------------------------------]

Then

F#[----------------------]
C#[----------------------]
G#[-2-2-2-2-5-5-5-5------]
C#[-----------------4----]

Then
F#[-9/9-9/9/9-9/9/9-9--9sd--]
C#[-------------------------]
G#[-------------------------]
C#[-------------------------]

Verse 2


F#[-9/9-9/9/9-9/9/9-9--9sd--]x2
C#[-------------------------]
G#[-------------------------]
C#[-------------------------]

Then

F#[--------------]
C#[--9-----------]
G#[------5-------]
C#[--------------]

Then
F#[-9/9-9/9/9-9/9/9-9--9sd--]x2
C#[-------------------------]
G#[-------------------------]
C#[-------------------------]

Then
F#[------7---12---14----]
C#[--9------------------]
G#[---------------------]
C#[---------------------]

Interlude 2


F#[----------------------]
C#[-------5p4s2-0h2p0----]
G#[----------------------]
C#[----------------------]


Then


F#[--7--]
C#[-----]
G#[-----]
C#[-----]


Bridge
F#[-12/11-------------------4-6-7---6-7---6-7--6----]
C#[------12-11-9-7-5-4-5-7--------5-----4------2----]x4
G#[-------------------------------------------------]
C#[-------------------------------------------------]


Ending

F#[-------------------------------------------------]
C#[-------------------------------------------------]x2
G#[-7---9--0--2--4--5--7----7---9--0--2--4--5--4----]
C#[-------------------------------------------------]
Добавлено: 19.04.2012
Другие материалы по этой песне:
  • Аккорды и текст

Страница создана 19.04.2012
http://primanota.ru/emery/miss-behavin-chords.htm
Привет, Гость.
Предлагаем пройти революционный курс по гитаре.
Подарок от PrimaNota.Ru, забирай!