PrimaNota.ru - самый крупный в мире бесплатный архив песенных текстов, аккордов, табулатур и нот


Emery - Left With Alibis And Lying Eyes - текст песни, таба, видео

Регистрация Запомнить меня
Войти через:  Facebook Google Twitter Vk Yandex Mail.ru

Emery - Left With Alibis And Lying Eyes - текст песни, таба, видео

Печатать
Просмотров: 171
Emery
The Question
Left With Alibis And Lying Eyes
© 2002 Tooth and Nail Records
Tabbed By: Jeremy Waterman (infectedwithyou@hotmail.com)
Attempted Help
 and Assistant Monkey: Sam Churney (sam_churney@hotmail.com)
Standard - Tuning: EADGBE


Legend:
/ Slide Up
\ Slide Down
. Palm Mute
x Mute Note

Intro (0:00)
E[-------------------------------------------------------------------------]
B[-------------------------------------------------------------------------]
G[-------------------------------------------------------------------------]
D[-----2--------2--------2--------2--------2--------2--------2--------2----]
A[---4----4---4----4---4----4---4----4---4----4---4----4---4----4---4----4-]
E[-4--4-----4--4-----4--4-----4--4-----2--2-----2--2-----2--2-----2--2-----]
                                                                        (x2)
Verse 1 (0:20)
E[-------------------------------------------------------------------------]
B[-------------------------------------------------------------------------]
G[-------------------------------------------------------------------------]
D[-----2--------2--------2--------2--------2--------2--------2--------2----]
A[---4----4---4----4---4----4---4----4---4----4---4----4---4----4---4----4-]
E[-4--4-----4--4-----4--4-----4--4-----2--2-----2--2-----2--2-----2--2-----]
                                                                        (x4)
Pre-Chorus (0:54)
E[-----------------------]
B[-----------------------]
G[-666/9-99/13-1313\9-99-]
D[-666/9-99/13-1313\7-77-] (let ring; no guitar during vocals
A[-444/7-77/11-1111\7-77-]  of pre-chorus)
E[-----------------------]

Chorus (0:59)
E[------------------------------------------------]
B[------------------------------------------------]
G[-9966--9966-9-6---11-11111111--1111--1111--9-6--]
D[-9966--9966-9-6---11-11111111--1111--1111--9-6--] (x4)
A[-7744--7744-7-4---9--9-9-9-9---9-9---9-9---7-4--]
E[------------------------------------------------]

Post Chorus 1 (1:22)
E[-----------------------------------------]
B[-----------------------------------------]
G[-6--666666666666666----------------------]
D[-6--666666666666666--4--444444444444444--]
A[-4--444444444444444--4--444444444444444--]
E[---------------------2--222222222222222--]

Verse 2
 -Guitar 1 (1:28)
E[-------------------------------------]
B[-------------------------------------]
G[-------------------------------------]
D[---2--2-----2--2-----2--2-----2--2---] (x2)
A[--4--4---4-4--4---4-4--4---4-4--4---4]
E[-4--4-----4--4-----2--2-----2--2-----]

 -Guitar 2 (1:28)
E[-------------------------------------]
B[-------------------------------------]
G[--6666666666666666-------------------]
D[--6666666666666666-4444444444444444--] (x2)
A[--4444444444444444-4444444444444444--]
E[-------------------2222222222222222--]
 PM ................ ................

 -Guitar 1 (1:39)
E[----------------------------------------------]
B[----------------------------------------------]
G[-9--xx-9--xx-9--xx-9--xx-9--xx-9--xx-9--xx-9--]
D[-9--xx-9--xx-9--xx-9--xx-9--xx-9--xx-9--xx-9--] (x2)
A[-7--xx-7--xx-7--xx-7--xx-7--xx-7--xx-7--xx-7--]
E[----------------------------------------------]

 -Guitar 2 (1:39)
E[----------------------------------------------]
B[----------------------------------------------]
G[-11---9----11---9----14-----------------------]
D[-11---9----11---9----14-----------------------]
A[-9----7----9----7----12-----------------------]
E[----------------------------------------------]
           (1:45)
E[----------------------------------------------]
B[----------------------------------------------]
G[-8----4----8----11---6------------------------]
D[-8----4----8----11---6------------------------]
A[-6----2----6----9----4------------------------]
E[----------------------------------------------]

 -Guitar 1 (1:51)
E[----------------------------------------------]
B[----------------------------------------------]
G[-9-xxx-9-xxx-9-xxx-9-xxx-9-xxx-9-xxx-9-xxx-9--]
D[-9-xxx-9-xxx-9-xxx-9-xxx-9-xxx-9-xxx-9-xxx-9--]
A[-7-xxx-7-xxx-7-xxx-7-xxx-7-xxx-7-xxx-7-xxx-7--]
E[----------------------------------------------]

 -Guitar 2 (1:51)
E[----------------------------------------------]
B[----------------------------------------------]
G[-13----9----13----9----11----------11-------6-]
D[-13----9----13----9----11----------11-------6-]
A[-11----7----11----7----9-----------9--------4-]
E[----------------------------------------------]

Chorus (1:57)
E[------------------------------------------------]
B[------------------------------------------------]
G[-9966--9966-9-6---11-11111111--1111--1111--9-6--]
D[-9966--9966-9-6---11-11111111--1111--1111--9-6--] (x4)
A[-7744--7744-7-4---9--9-9-9-9---9-9---9-9---7-4--]
E[------------------------------------------------]

Post Chorus 2 (2:20)
E[----------------------------]
B[----------------------------]
G[--666666666666666666666666/-]
D[--666666666666666666666666/-]
A[--444444444444444444444444/-]
E[----------------------------]
 PM ........................

Bridge (2:25)
E[-----------------------------]
B[-----------------------------]
G[-----------------------------]
D[--\77-----77-----66-----66---]
A[--\77-----77-----66-----66---]
E[--\55-----55-----44-----44---]

E[---------------------------------]
B[---------------------------------]
G[---------------------------------]
D[---77-----77-----66-----99\66/99-]
A[---77-----77-----66-----99\66/99-]
E[---55-----55-----44-----77\44/77-]

 -Guitar 1 (2:33)
E[-----------------------------------------------------]
B[-----------------------------------------------------]
G[-----------------------------------------------------]
D[--666666666666666666666666\444444444444444444444444--] (x2)
A[--666666666666666666666666\444444444444444444444444--]
E[--444444444444444444444444\222222222222222222222222--]
 PM ........................ ........................

 -Guitar 2 (2:33)
E[-----------------------------------------------------]
B[-----------------------------------------------------]
G[--------13----------13-----------11---------11-------]
D[--------13----------13-----------11---------11-------] (x2)
A[--------11----------11-----------9----------9--------]
E[-----------------------------------------------------]

Pre-Chorus (2:50)
E[--------------------------------------------]
B[--------------------------------------------]
G[-666/9-99/13-1313\9-99----9----9----9----11-]
D[-666/9-99/13-1313\7-77----9----9----9----11-] (let ring)
A[-444/7-77/11-1111\7-77----7----7----7----9--]
E[--------------------------------------------]

Chorus (2:58)
E[------------------------------------------------]
B[------------------------------------------------]
G[-9966--9966-9-6---11-11111111--1111--1111--9-6--]
D[-9966--9966-9-6---11-11111111--1111--1111--9-6--] (x3)
A[-7744--7744-7-4---9--9-9-9-9---9-9---9-9---7-4--]
E[------------------------------------------------]

E[------------------------------------------------]
B[------------------------------------------------]
G[-9966--9966-9-6---11-11111111--1111--1111--9-6--]
D[-9966--9966-9-6---11-11111111--1111--1111--9-6--]
A[-7744--7744-7-4---9--9-9-9-9---9-9---9-9---7-4--]
E[------------------------------------------------]
 PM                                          . .
Добавлено: 09.06.2012
Другие материалы по этой песне:
  • Аккорды и текст

Страница создана 29.02.2012
http://primanota.ru/emery/left-with-alibis-and-lying-eyes-chords.htm
Привет, Гость.
Предлагаем пройти революционный курс по гитаре.
Подарок от PrimaNota.Ru, забирай!