PrimaNota.ru - самый крупный в мире бесплатный архив песенных текстов, аккордов, табулатур и нот


Emery - Edge Of The World - таба, видео

Регистрация Запомнить меня
Войти через:  Facebook Google Twitter Vk Yandex Mail.ru

Emery - Edge Of The World - таба, видео

Печатать
Просмотров: 134
Emery
Edge Of The World
While Broken Hearts Prevail 2008
Dropped C# (dropped d 1/2 step down)

I don't believe there is rhythm guitar, but I'll put what it would probably play in 
in which there are lead parts.

Verse
(Rhythm)
eb---------------------------------------------------------------------------|
Bb---------------------------------------------------------------------------|
Gb----(palm mute----)------------22222222222222222----4444444444444444-------|
Db-4-4-44444444444444-4-4-4------00000000000000000----4444444444444444-------|
Ab-4-4-44444444444444-4-4-4--x2--00000000000000000----2222222222222222-------|
Db-4-4-44444444444444-4-4-4------00000000000000000---------------------------|

(Lead)                           Let Ring
eb---------------------------------------------------------------------------|
Bb---------------------------------------------------------------------------|
Gb----------------------------------------------------6-------4--------------|
Db-------------------------------6-------4-----------------------------------|
Ab---------------------------------------------------------------------------|
Db---------------------------------------------------------------------------|
REPEAT

Chorus
eb---------------------------------------------------------------------------|
Bb---------------------------------------------------------------------------|
Gb-----------------2222222222224444------------------------------------------|
Db-44444444444477770000000000004444--x2--------------------------------------|
Ab-44444444444477770000000000002222------------------------------------------|
Db-4444444444447777000000000000----------------------------------------------|

Post Chorus Screaming
                                 (You make it hard for me...)
eb---------------------------------------------------------------------------|
Bb---------------------------------------------------------------------------|
Gb----(palm mute----)--------------------------------------------------------|
Db-4-4-44444444444444-4-4-4------44------------------------------------------|
Ab-4-4-44444444444444-4-4-4--x2--44------------------------------------------|
Db-4-4-44444444444444-4-4-4------44------------------------------------------|

Verse 2
(Rhythm)
eb---------------------------------------------------------------------------|
Bb---------------------------------------------------------------------------|
Gb----(palm mute----)------------22222222222222222----4444444444444444-------|
Db-4-4-44444444444444-4-4-4------00000000000000000----4444444444444444-x2----|
Ab-4-4-44444444444444-4-4-4--x2--00000000000000000----2222222222222222-------|
Db-4-4-44444444444444-4-4-4------00000000000000000---------------------------|

(Lead)                           Let Ring
eb---------------------------------------------------------------------------|
Bb---------------------------------------------------------------------------|
Gb----------------------------------------------------6-------4--------x2----|
Db-------------------------------6-------4-----------------------------------|
Ab---------------------------------------------------------------------------|
Db---------------------------------------------------------------------------|
REPEAT

Chorus
eb---------------------------------------------------------------------------|
Bb---------------------------------------------------------------------------|
Gb-----------------2222222222224444------------------------------------------|
Db-44444444444477770000000000004444-x2-(second time keep playing b)----------|
Ab-44444444444477770000000000002222------------------------------------------|
Db-4444444444447777000000000000----------------------------------------------|

Breakdown
eb---------------------------------------------------------------------------|
Bb---------------------------------------------------------------------------|
Gb---------------------------------------------------------------------------|
Db-22----------------------244-----------------------------------------------|
Ab-22-(8 beats each time)--244---x4------------------------------------------|
Db-22----------------------244-----------------------------------------------|

Slow Outro Part

eb-0000000000000000----------------------------------------------------------|
Bb-77777777777777773333333333333333------------------------------------------|
Gb-66666666666666662222222222222222------------------------------------------|
Db-44444444444444440000000000000000------------------------------------------|
Ab-44444444444444440000000000000000------------------------------------------|
Db-44444444444444440000000000000000------------------------------------------|

Just repeat that until the end. Thanks
Добавлено: 16.07.2012
Другие материалы по этой песне:
  • Аккорды и текст

Страница создана 03.05.2012
http://primanota.ru/emery/edge-of-the-world-chords.htm
Привет, Гость.
Предлагаем пройти революционный курс по гитаре.
Подарок от PrimaNota.Ru, забирай!