PrimaNota.ru - самый крупный в мире бесплатный архив песенных текстов, аккордов, табулатур и нот


Emery - Do The Things You Want - таба, видео

Регистрация Запомнить меня
Войти через:  Facebook Google Twitter Vk Yandex Mail.ru

Emery - Do The Things You Want - таба, видео

Печатать
Просмотров: 113
Great Song by Emery on there new EP "While Broken Hearts Prevail"
Haven't seen a tab for it yet so i decided to tab it. Probably not 100% correct but I'm 
tabbing the rhythm guitar part.

Tabbed in Drop C# tuning

Verse

|-0----0----0-------------------|
|-0----0----0-------------------|
|-5----2----0-------------------|
|-7-x4-3-x4-2-x4-7-x4-3-x8-7-x8-|
|-7----3----3----3----0----3----|
|-7----3---------3----0----3----|

Chorus

|-0----0----0----0--------------|
|-0----0----0----5--------------|
|-2----4----5----5--------------|
|-3-x4-5-x4-7-x4-5-x4-----------|
|-3----5----7----3--------------|
|-3----5----7-------------------|

Bridge

|-------------------------------|
|-------------------------------|
|-5-----------------------------|
|-5-x16-2-x16-7-x16-5-x16-------|
|-3-----2-----7-----5-----------|
|-------2-----7-----5-----------|

And that's it. Just play around with it. I tabbed the basic chords
Any questions email me at crayola_22_88@yahoo.com

Enjoy!
Добавлено: 19.04.2012
Другие материалы по этой песне:
  • Аккорды и текст

Страница создана 19.04.2012
http://primanota.ru/emery/do-the-things-you-want-chords.htm
Привет, Гость.
Предлагаем пройти революционный курс по гитаре.
Подарок от PrimaNota.Ru, забирай!