PrimaNota.ru - самый крупный в мире бесплатный архив песенных текстов, аккордов, табулатур и нот


Emery - Disguising Mistakes With Goodbyes Full Song - бас-таба, видео

Регистрация Запомнить меня
Войти через:  Facebook Google Twitter Vk Yandex Mail.ru

Emery - Disguising Mistakes With Goodbyes Full Song - бас-таба, видео

Печатать
Просмотров: 122
Tabbed By: Texasayses00
E-Mail: SK8er_element_user@hotmail.com



Emery - Disguising Mistakes With Goodbyes
updated: 10/28/06

i'm not finished yet but u can figure out the end....i'm sure its easy



Tuning - Drop Eb (Eb Ab Db Gb)


Keys:

h - hammer on

p - pull off

() - let note ring

/ or\ - slide to note




ok so here we go



     Intro (0:03)
Gb---------------------------------------------------------------------------------------------|
Db---------------------------------------------------------------------------------------------|
Ab---------------------------------------------------------------------------------------------|
Eb-0000-00-------00---0000-00----00------------------------------------------------------------|




     Intro (continued)
Gb------------------7--------------------------------------|
Db------6p4-6p4-6p4---4------6p4-6p4-6p4-7-----------------|x2
Ab---------------------------------------------------------|
Eb-0000-----------------0000-------------------------------|

   




     Verse:    "just take it back!" 
Gb------------------7---------------------------------------7----------------------------------------------------------------------|
Db------6p4-6p4-6p4---4------6p4-6p4-6p4-7------6p4-6p4-6p4---4------6p4-6p4-6p4-7-------------------------------------------------|
Ab-----------------------------------------5555-----------------5555-----------------------------------3333-3333-3333-3333-(5)-----|
Eb-0000-----------------0000-------------------------------------------------------3333-3333-3333-3333-----------------------------|




then there is a little guitar solo then play this:


     Verse (continued)
Gb--------------------------------------|
Db--------------------------------------|X5
Ab-55555-55555-22222-22222--------------|
Eb--------------------------------------|

then play this
Gb------------------------------------|
Db------------------------------------|
Ab------------------------------------|
Eb-3(3)-----0(0)----------------------|




     Verse (continued)
Gb--------------------------------------|
Db--------------------------------------|
Ab-55555-55555-2222-2222----------------|
Eb--------------------------------------|




Gb------------------------------------|
Db------------------------------------|
Ab------------------------------------|
Eb-3(3)-----0(0)----------------------|





     Verse (continued)
Gb--------------------------------------|
Db--------------------------------------|X2
Ab-55555-55555-22222-22222--------------|
Eb--------------------------------------|




Gb------------------------------------|
Db------------------------------------|
Ab------------------------------------|
Eb-3(3)-----0(0)----------------------|



 Verse (continued)
Gb--------------------------------------|
Db--------------------------------------|X2
Ab-55555-55555-22222-22222--------------|
Eb--------------------------------------|





Gb------------------------------------|
Db------------------------------------|X3
Ab------------------------------------|
Eb-3(3)-----0(0)----------------------|




Then play this after that




       "empty!...."
Gb-------------------------------|
Db-------------------------------|
Ab-2-33---55---22---33/7---------|
Eb-------------------------------|





     Breakdown (continued)
Gb---------------------------------------------|
Db---------------------------------------------|X3
Ab-33---55---22---33-0h2h3p2-0-----------------|
Eb---------------------------------------------|






     Bridge/Bass Solo
Gb-------------------------------------------|
Db---------4-5-------------------------------|
Ab-0-2-3-------2-3---9-----------------------|
Eb-------0---------2-------------------------|






     Bridge (continued) "i can give you my answer" Gb-----------------------------------------------------------------------|
Db-----------------------------------------------------------------------|
Ab-----------------------------------------------------------------------|
Eb-0000000000000000000000000000000---------------------------------------|

    just keep playin until he stops then play this....




Gb------------------------------|
Db------------------------------|
Ab-0-2-3-----14-12-10-12-10-9---|
Eb-------0-2--------------------|






     Coda   "I know........"
Gb-----------------------------------------------------------------------------------------------|
Db-----------------------------------------------------------------------------------------------|
Ab---------------------5-55-5-55-5-55-5-55---------------------5-55-5-55-5-55-5-55---------------|
Eb-0-00-0-00-0-00-0-00---------------------0-00-0-00-0-00-0-00-----------------------------------|




     Coda (continued)
Gb---------------------------------------------|
Db---------------------------------------------|x2
Ab-333333333333-555555555555--------9-7-5------|
Eb---------------------------------------------|
                                     ^^^
                            play this on the second time



Gb---------------------------------------------|
Db---------------------------------------------|x2
Ab-222222222222-----------7-9-5------------------|
Eb--------------000000000-------------------------------|
Добавлено: 01.07.2012
Другие материалы по этой песне:
  • Аккорды и текст

Страница создана 01.07.2012
http://primanota.ru/emery/disguising-mistakes-with-goodbyes-full-song-chords.htm
Привет, Гость.
Предлагаем пройти революционный курс по гитаре.
Подарок от PrimaNota.Ru, забирай!