PrimaNota.ru - самый крупный в мире бесплатный архив песенных текстов, аккордов, табулатур и нот


Emerson Lake And Palmer - Karn Evil 9 1st Impression Part 2 - таба, видео

Регистрация Запомнить меня
Войти через:  Facebook Google Twitter Vk Yandex Mail.ru

Emerson Lake And Palmer - Karn Evil 9 1st Impression Part 2 - таба, видео

Печатать
Просмотров: 57
Авторы музыки: Keith Emerson
Авторы текста: Greg Lake
Tabbed by: Tiagoon

Karn Evil 9: 1st Impression, Part 2
Emerson, Lake and Palmer
Brain Salad Surgery

Standard Tuning (EADGBe)


PM = palm mute
~ = vibrato
b = bend
pb = pre bend
r = release
h = hammer on
p = pull off
()= ghost note
/ = slide up
\ = slide down




e|---------------------------|----------------------------11-|-12----11p9-----9----------|
B|-14----17---14-------------|----14---14---12-14------14----|------------12-------12----|
G|---------------16----13----|-13----------------------------|---------------------------|
D|---------------------------|-------------------------------|---------------------------|
A|---------------------------|-------------------------------|---------------------------|
E|---------------------------|-------------------------------|---------------------------|


e|--------------------------|------------------------------|-------------------------------|
B|-9b10r9b10r9b10r9--/9--7--|----------------------12--11--|-9h11p9------------9----9--11--|
G|--------------------------|-9--8--8h9p8------------------|--------11--8--11--------------|
D|--------------------------|-------------9----------------|-------------------------------|
A|--------------------------|----------------11------------|-------------------------------|
E|--------------------------|------------------------------|-------------------------------|


e|-7-9-11--7-----------------|------------------|
B|------------9--7-----------|------------------|
G|-----------------8---8---6-|-8----------------|
D|---------------------------|------------------|
A|---------------------------|------------------|
E|---------------------------|------------------|


e|-8-8-8--11--11--------------------------|------------------------------------------|
B|---------------9---------13-------------|---------------------------13-------------|
G|----------------------13----13-10-------|------------------------13----13-10-------|
D|-------------------11-------------11----|-13---13--(13)b15r---11-------------11----|
A|-------------------------------------11-|---------------------------------------11-|
E|----------------------------------------|------------------------------------------|


e|------------------------------------------|-----------------------------------------|-------------------|
B|---------------------------------------14-|-16--------17-16-------------------------|-------------------|
G|------------------------------13-14-16----|-------18--------18-16-14----------------|-------------------|
D|-13---13--(13)b15r---13-14-16-------------|--------------------------18-16-14-------|-------------------|
A|------------------------------------------|-----------------------------------18-16-|-14----------------|
E|------------------------------------------|-----------------------------------------|-------------------|


e|-------------------------------------|-------------------|
B|-------14-13-------------------------|-------------------|
G|-------------15-13-11----------------|-------------------|
D|----------------------15-13-11-------|-------------------|
A|-------------------------------15-13-|-11----------------|
E|-------------------------------------|-------------------|


e|-------------------------------------|-------------------|
B|-------17-16-------------------------|-------------------|
G|-------------18-16-14----------------|-------------------|
D|----------------------18-16-14-------|-------------------|
A|-------------------------------18-17-|-16----------------|
E|-------------------------------------|-------------------|


e|-------------------------------------|-------------------|
B|-------14-13-------------------------|-------------------|
G|-------------15-13-11----------------|-------------------|
D|----------------------15-13-11-------|-------------------|
A|-------------------------------15-14-|-13----------------|
E|-------------------------------------|-------------------|


e|---------------------------11--|-12------------12---------12-14--|-14b16r------------14b16r---------|
B|-------------14----13--14------|----14---14-------14---14--------|----------14-14-------------14-14-|
G|--------13---------------------|---------------------------------|----------------------------------|
D|-15--15------------------------|---------------------------------|----------------------------------|
A|-------------------------------|---------------------------------|----------------------------------|
E|-------------------------------|---------------------------------|----------------------------------|
      
                         
e|-16b18r------------16b18r---------|-16b18*r------------16b18*r-------|
B|----------14-14-------------14-14-|----------14-14-------------14-14-|
G|----------------------------------|----------------------------------|   * = 1 + 1/4 bend
D|----------------------------------|----------------------------------|
A|----------------------------------|----------------------------------|
E|----------------------------------|----------------------------------|
         
                  
e|-8h9p8----8--8h9p8----8--8------|-8h9p8----8--8h9p8----8--8------|
B|-------11----------11-------11--|-------11----------11-------11--|
G|--------------------------------|--------------------------------|
D|--------------------------------|--------------------------------|
A|--------------------------------|--------------------------------|
E|--------------------------------|--------------------------------|

           
e|-11h12p11----11--11h12p11----11--11------|-11h12p11----11--11h12p11----11--11------|
B|----------14--------------14---------14--|----------14--------------14---------14--|
G|-----------------------------------------|-----------------------------------------|
D|-----------------------------------------|-----------------------------------------|
A|-----------------------------------------|-----------------------------------------|
E|-----------------------------------------|-----------------------------------------|


e|-11h12p11----11--11h12p11----11--11------|-11h12p11----11--11h12p11----11--11------|-16\----------------||
B|----------14--------------14---------14--|----------14--------------14---------14--|-16\----------------||
G|-----------------------------------------|-----------------------------------------|--------------------||
D|-----------------------------------------|-----------------------------------------|--------------------||
A|-----------------------------------------|-----------------------------------------|--------------------||
E|-----------------------------------------|-----------------------------------------|--------------------||



************************************

| /   slide up
| \   slide down
| h   hammer-on
| p   pull-off
| ~   vibrato
| +   harmonic
| x   Mute note
| b   Bend
| pb  Pre-bend
| br  Bend release
| pbr Pre-bend release
| brb Bend release bend

************************************
Добавлено: 27.11.2015
Вам также может быть интересно:
Другие материалы по этой песне:
  • Аккорды и текст

Страница создана 27.11.2015
http://primanota.ru/emerson-lake-and-palmer/karn-evil-9-1st-impression-part-2-chords.htm
Привет, Гость.
Предлагаем пройти революционный курс по гитаре.
Подарок от PrimaNota.Ru, забирай!