PrimaNota.ru - самый крупный в мире бесплатный архив песенных текстов, аккордов, табулатур и нот


Embrace Today - Fuck You Im Edge - текст песни, таба, видео

Регистрация Запомнить меня
Войти через:  Facebook Google Twitter Vk Yandex Mail.ru

Embrace Today - Fuck You Im Edge - текст песни, таба, видео

Печатать
Просмотров: 129
-------------------------------------------------------------------------------
                             FUCK YOU, I'M EDGE - Embrace Today
-------------------------------------------------------------------------------
Tabbed by: Chris Nadell
Email: ceXhc@msn.com

http://www.myspace.com/embracetoday
http://www.xembracetodayx.com/
http://www.deathwishinc.com/


Tuning: Standard (EADGBe)

  Intro
e|-----------|  |----------|--------------|----------|----------------|
B|-----------|  |----------|--------------|----------|----------------|
G|-----------|  |----------|--------------|-3--------|-(3)------------|
D|-----5-4---|  |-2--------|-(2)----5-4---|-3--------|-(3)----5-4-----| x2
A|-----3-2-5-|  |-2--------|-(2)----3-2-5-|-1--------|-(1)----3-2-5---|
E|---------3-|  |-0--------|-(0)--------3-|----------|------------3---|
       * * *                        * * *                     * * *

  Verse
e|----------|-----------------|
B|----------|-----------------|
G|----------|-----------------|
D|-2--------|-------2-----2---|
A|-2--------|-2-2-2-2-2-2-2-2-|
E|-0--------|-0-0-0-0-0-0-0-0-|
              * * *   * *   *

e|---------------|---------------|-----------------|------------------|
B|---------------|---------------|-----------------|------------------|
G|-4-5--5-4-5--5-|-4-5--5-4-5--5-|-----------------|------------------|
D|-4-5--5-4-5--5-|-4-5--5-4-5--5-|-------2-----2---|-------2-----2----| x4
A|-2-3--3-2-3--3-|-2-3--3-2-3--3-|-2-2-2-2-2-2-2-2-|-2-2-2-2-2-2-2-2--|
E|---------------|---------------|-0-0-0-0-0-0-0-0-|-0-0-0-0-0-0-0-0--|
                                   * * *   * *   *   * * *   * *   *

  Build Up
e|----------------|-----------------|-----------------|------------------|
B|----------------|-----------------|-----------------|------------------|
G|----------------|-----------------|-----------------|------------------|
D|-2--------------|-4-4-4-4-4-4-4-5-|-5-5-5-5-5-5-5-5-|-5-5-5-5-5-5-5-5--| x2
A|-2--2-2-2-2-2-2-|-2-2-2-2-2-2-2-3-|-3-3-3-3-3-3-3-3-|-3-3-3-3-3-3-3-3--|
E|-0--0-0-0-0-0-0-|-----------------|-----------------|------------------|
      * * * * * *   * * * * * * * *   * * * * * * * *   * * * * * * * *

  Breakdown
e|-----------------|-----------------|-----------------|------------------|
B|-----------------|-----------------|-----------------|------------------|
G|-----------------|-4-4-4-4-4-4-4-5-|-5-5-5-5-5-5-5-5-|-5-5-5-5-5-5-5-5--|
D|-2-2-2-2-2-2-2-2-|-4-4-4-4-4-4-4-5-|-5-5-5-5-5-5-5-5-|-5-5-5-5-5-5-5-5--| x2
A|-2-2-2-2-2-2-2-2-|-2-2-2-2-2-2-2-3-|-3-3-3-3-3-3-3-3-|-3-3-3-3-3-3-3-3--|
E|-0-0-0-0-0-0-0-0-|-----------------|-----------------|------------------|

e|-----------------|-----------------|-----------------|------------------|
B|-----------------|-----------------|-----------------|------------------|
G|-----------------|-----------------|-----------------|------------------|
D|-----------------|-4-4-4-4-4-4-4-5-|-5-5-5-5-5-5-5-5-|-5-5-5-5-5-5-5-5--|
A|-2-2-2-2-2-2-2-2-|-2-2-2-2-2-2-2-3-|-3-3-3-3-3-3-3-3-|-3-3-3-3-3-3-3-3--|
E|-0-0-0-0-0-0-0-0-|-----------------|-----------------|------------------|
   * * * * * * * *   * * * * * * * *   * * * * * * * *   * * * * * * * *

e|-----------------|-----------------|-----------------|-----------------|
B|-----------------|-----------------|-----------------|-----------------|
G|-----------------|-4-4-4-4-4-4-4-5-|-5-5-5-5-5-5-5-5-|-5-5-5-5-5-5-5-5-|
D|-2-2-2-2-2-2-2-2-|-4-4-4-4-4-4-4-5-|-5-5-5-5-5-5-5-5-|-5-5-5-5-5-5-5-5-|
A|-2-2-2-2-2-2-2-2-|-2-2-2-2-2-2-2-3-|-3-3-3-3-3-3-3-3-|-3-3-3-3-3-3-3-3-|
E|-0-0-0-0-0-0-0-0-|-----------------|-----------------|-----------------|

  Outro
e|---------------|---------------|-------|
B|---------------|---------------|-------|
G|-4-5--5-4-5--5-|-4-5--5-4-5--5-|-------|
D|-4-5--5-4-5--5-|-4-5--5-4-5--5-|-2-----|
A|-2-3--3-2-3--3-|-2-3--3-2-3--3-|-2-----|
E|---------------|---------------|-0-----|


| *  Palm mute
| /  slide up
| \  slide down
| h  hammer-on
| p  pull-off
| ~  vibrato
| +  harmonic
| x  Mute note

===============================================================================
Добавлено: 07.05.2012
Другие материалы по этой песне:

Страница создана 29.02.2012
http://primanota.ru/embrace-today/fuck-you-im-edge-chords.htm
Привет, Гость.
Предлагаем пройти революционный курс по гитаре.
Подарок от PrimaNota.Ru, забирай!