PrimaNota.ru - самый крупный в мире бесплатный архив песенных текстов, аккордов, табулатур и нот


Emblem3 - Sunset Boulevard - таба, видео

Регистрация Запомнить меня
Войти через:  Facebook Google Twitter Vk Yandex Mail.ru

Emblem3 - Sunset Boulevard - таба, видео

Печатать
Просмотров: 157
Уроки эстрадного вокала в Санкт-Петербурге
Sunset Blvd by Emblem3   
(Nothing To Lose version, they changed the rhythm)        
Tuning: Drop D (Except for the intro solo)

Intro: (h = hammer s = slide)

|------------------------------------------------------------------|
|------------------------------------16--12-----------------9------|
|--------------------------------13-------------8s9-8s9-----9------|
|----------11----11------14----14------------9--8s9-8s9-77--9------|
|----------11--11------14----12--------------9----------77---------|
|----7h9-9-9---------12----------------------7----------55---------|

|-------------------------------------------------|
|-------------------------------------------------|
|-------------------------------------------------|
|-----11---11--9--9--7--7-66666-------------------|
|---11---11---9--9--7--7--66666-------------------|
|--9----9----7--7--5--5---44444-------------------|

Chords: (Drop D)

   C#m      B       A       G#      F#      E       D#      E9                                    
|-------|-------|-------|-------|-------|-------|-------|-------|
|-------|-------|-------|-------|-------|-------|-------|-------|
|-------|-------|-------|-------|-------|-------|-------|---9---|
|---11--|---9---|---7---|---6---|---4---|---2---|---1---|---9---|
|---11--|---9---|---7---|---6---|---4---|---2---|---1---|---7---|
|---11--|---9---|---7---|---6---|---4---|---2---|---1---|-------|

        C#m                   B
I said I love my women like I love my juice, naked!
  A         G#
All natural no preservatives or fakeness!
   F#                   E
I like my ladies like I like my brainy's, in bunches!
 D#                G#
Got the six pack, I ain't talkin' 'bout the crunches!
 C#m                     B
Hit it till I quit it like Tyson's punches!
 A                    G#
That's how you gotta rock if you wanna run shoot
  F#        E
    A sweat make it less fizzy
 D#               G#
Buzz kill Betty got me dolly dolly dizzy
 C#m                 B
Lost in her eyes like oh my God where is she?
 A                 G#                              F#    E
Down here in south Cal boy we gettin' busy in the city...
                        D#  G#
We gettin' busy in the city...
---------------------------------------------------------------------
Chorus:
                      C#m         E9                    B   A
Let's take a trip to sunset boulevard in the city of stars
             C#m             E9               B 
The city of blinding lights and starry eyes..
            A              G#      C#m   E9
I said now welcome to the city of angels!
 B       A
whooah whoooah
        C#m   E9      B      A      G#
City of angels! whoooah whooooah
---------------------------------------------------------------------
         C#m                    B
I set a bright future reflex off my aviators
 A                   G#
Here's a peace sign going out to all my haters!
 F#             E
High five Keaton, no hurt hand when we
 D#          G#
Get samples at Yoghurtland and we
 C#m          B
Chill soon talk about Betty Blomby
 A          G#                          F#
Kill Bruz play Call of Duty zombies.. Yeah!
 E
She started to get the best of me
 D#                          G#
While she makes her mind of whether she wants me or Wesley
 C#m          B      A            G#
Da da do, da da do, da da do du da do, da do, da do

(Chorus)

Bridge: C#m-E9-B-A (2x)

(Chorus)

        C#m   E9      B      A      
City of angels! whoooah whooooah
        C#m   E9      B      A      
City of angels! whoooah whooooah
        G#
City of... fallen angels!
    
http://www.youtube.com/watch?v=Nyy6OYwfSNg (Sunset Blvd Audio)
Добавлено: 07.03.2016
Другие материалы по этой песне:
  • Аккорды и текст

Страница создана 07.03.2016
http://primanota.ru/emblem3/sunset-boulevard-chords.htm
Привет, Гость.
Предлагаем пройти революционный курс по гитаре.
Подарок от PrimaNota.Ru, забирай!