PrimaNota.ru - самый крупный в мире бесплатный архив песенных текстов, аккордов, табулатур и нот


Embers From Cremation - Raise The Nocturnal Sun - таба, видео

Регистрация Запомнить меня
Войти через:  Facebook Google Twitter Vk Yandex Mail.ru

Embers From Cremation - Raise The Nocturnal Sun - таба, видео

Печатать
Просмотров: 131
Artist: Embers From Cremation
Song: Raise The Nocturnal Sun
Album: Eroding In Abred/Eroding In The Fortress Of Time
Written In 2004
Released In 2014/2009
Tabbed By:Obscurr
Tuning E Flat Standard

Guitar One
Riff 1
|------------------------------|
|------------------------------|
|------------------------------|
|6-4-3-----5-------------------|
|4-2-1-4-3-3-4-3-6-4-3-4-3-4-3-|
|------2-1---2-1-4-2-1-2-1-2-1-|

Riff 2
|------------------------------|
|------------------------------|
|------------------------------|
|9-------5/-6-5-5/-4-5/-4-5/-4-|
|7-8-6-5-3/-4-3-3/-2-3/-2-3/-2-|
|--6-4-3-----------------------|

Riff 3
|---------------|
|---------------|
|---------------|
|---------------|
|-2-3-4-5-4-6-5-|
|-0-1-2-3-2-4-3-|

Riff 4
|----------------------------------|
|----------------------------------|
|----------------------------------|
|-----------------------7---8---10-|
|-6-----3-6-/-7-2-3-4-4-4-5-5-7-7--|
|-0-0-4---------4-4-5-5-5-6-6-7-7--|

Riff 5 (3x - on last time don't play open strings)
|----------------|
|--------------0-|
|--------------0-|
|----------------|
|-3-2-3-2-3-(3)--|
|-1-3-1-3-4-(4)--|

Riff 6
|-------------------------0-----|
|-----------------------3---3---|
|---------------------0-------5-|
|-------------------4-----------|
|---3-2---1-4-3---2-------------|
|-1-----2-------0---------------|

Riff 7
|---------------------------------------------------|
|---------------------------------------------------|
|---------------------------------------------------|
|-----6-7-----------6ph-7ph-----------------6-3-5-3-|
|---3-----5-3----3ph--------4ph-3ph-6-3-5-3-4-1-3-1-|
|-4-------3-1-4ph-------------------4-1-3-1-4-1-3-1-|

Riff 8
|--------------------------------------------|
|--------------------------------------------|
|--------------------------------------------|
|-2-------2-------4---4---4-2-2-------2------|
|-1-------1-------1-1-1-1-1-1-1-------1------|
|---0-4-0---0-3-0-----------0-0-0-4-0--0-3-0-|

Riff 9
|-----------------------------|
|-----------------------------|
|-----------------------------|
|-9-9-9---------9-9--9-9-10---|
|-7-7-6-4-6-5-3-6-7--7------9-|
|-7-8-6-2-4-3-1-6-8--7--------|

Riff 10
|------------------------------------|
|------------------------------------|
|-----------------------4------------|
|-4-/-2-----------6-7---3---4-9-10---|
|-3-/-1------6-7--------3-4-1------9-|
|--------3p7----------5-5---1--------|

Riff 11
|--------------------------------------------|
|--------------------------------------------|
|-4---------3--4----------3-2--------------2-|
|---3-----4------3------4-----2--------------|
|-----2-5----------2--5----------------------|
|-------------------------------4-0-4-0-2b---|

Riff 12
|---------------------------------------------------------------------------|
|---------------------------------------------------------------------------|
|-----------------------------------------6--7---5-6-----------------5hdive-|
|-6---3-----------------------------------6--7---5-6-2-5-6-3---------5hdive-|
|-4---1---4---3---4---3-/-4-4---3---4---6------5---------------4-6-3--------|
|---0---0-2-0-1-0-2-0-1-/-2-2-0-1-0-2-0-4------3-------------6--------------|

Riff 13 (2x)
|-------------------------------|
|-----------------5-/-7-x-5-/-7-|
|-----------------5-/-7-x-5-/-7-|
|-------7-8---7-8-5-/-7-x-5-/-7-|
|-7-/-8-5-4-8-5-4---------------|
|-5-/-6-----6-------------------|

Riff 13a(at very end of riff 13 on the second time)
|---
|---
|---
|-9-
|-5-
|-6-

Riff 14
|-0-------------------0-------------------------------------------------------|
|---6---------6---------6---------6-------5-----------------5-----------------|
|-----7---------7---------7---------7-------7-------6^7-7-7---7-------6^7-7-7-|
|-------8-8-8-----8-8-------8-8-8-----8-8-----7-7-7-------------7-7-7---------|
|-----------------------------------------------------------------------------|
|-----------------------------------------------------------------------------|

Riff 15
|--------------------------------------------|
|--------------------------------------------|
|----------------7---------------------------|
|---------9----7-----6-8-4-5-5-5---5-/-8-8-3-|
|-10-6--8-7--9-----7-------4-0-4-^-0---7-0-2-|
|-8--4--6----7-------------4-0-4-^-0---7-0-2-|

End
Добавлено: 06.05.2015
Другие материалы по этой песне:
  • Аккорды и текст

Страница создана 06.05.2015
http://primanota.ru/embers-from-cremation/raise-nocturnal-sun-chords.htm
Привет, Гость.
Предлагаем пройти революционный курс по гитаре.
Подарок от PrimaNota.Ru, забирай!