PrimaNota.ru - самый крупный в мире бесплатный архив песенных текстов, аккордов, табулатур и нот


Embers From Cremation - No More - таба, видео

Регистрация Запомнить меня
Войти через:  Facebook Google Twitter Vk Yandex Mail.ru

Embers From Cremation - No More - таба, видео

Печатать
Просмотров: 111
Artist: Embers From Cremation
Song: No More
Album: Eroding In Abred/2004-2005 Demo
Released In 2014/2005. Written In 2002-2003
Tabbed By: Obscurr
Chords/Progressions only
Tuning: D Standard

Riff 1a
|---------------------------------|
|---------------------------------|
|---------------------------------|
|-4-----2---2---2-------4-----2---|
|-2-4-3-0-3-0-3-0-3-6-5-2-4-3-0-3-|
|---2-1---1---1---1-4-3---2-1---1-|

Riff 1b
|------------------------|
|------------------------|
|------------------------|
|-3/-6-7------------5/-8-|
|-1/-4---6----------3/-6-|
|-----------7-/-6-3------|

Repeat Riff 1a(end on the 3rd fret power chord on the low E string)

Riff 1c (slight bends through out)
|------------------|
|------------------|
|------------------|
|------------------|
|-10-9-7-6-9-7-6-5-|
|-8--7-5-4-7-5-4-3-|

Repeat Riff 1a and 1b

Riff 2a
|------------------------------------------------|
|------------------------------------------------|
|------------------------------------------------|
|-9-----------9-----------8-----------9----------|
|-7--8--7--5--7--8--7--5--6--8--7--5--7--8--7--5-|
|----6--5--3-----6--5--3-----6--5--3-----6--5--3-|

Riff 2b(x2)
|-----------------------|
|-----------------------|
|-----------------------|
|-----------------------|
|-10-9-8--6--10-9-8-6-7-|
|-8--7-6--4--8--7-6-4-5-|
Note: 1st time around it ends 1 and a half times through

Repeat Riff 2a
Repeat Riff 2b (note slight signature time change)

Riff 3 (1x)
|-----------------|
|-----------------|
|-----------------|
|-----------------|
|-2-0--2--0--2--0-|
|-4-4--4--4--4--4-|

Riff 4 (4x)
|-------------------------------------------------------------------|
|-------------------------------------------------------------------|
|-------------------------------------------------------------------|
|-----2---3---3----3----3---5--3--2--------2----3---3---------------|
|-1---------------------------------3--1-----------------6--3--5--2-|
|---0---0---0----0---0----0--------------0----0---0---0--4--1--3--0-|

Riff 5a
|-----------------------------------|
|-----------------------------------|
|-----------------------------------|
|-------------------------------3---|
|-4--3-----2----4--3--1----4--3-----|
|-2--1--0----0--2--1----0--2--1---0-|

Riff 5b
|------------------------------|
|------------------------------|
|------------------------------|
|------------------------------|
|-8--5--4--5--4--7--5--4--3--2-|
|-6--3--2--3--2--5--3--2--5--4-|

Repeat riff 5a

Riff 5c
|-----------------------------------------------------------------------------------|
|-----------------------------------------------------------------------------------|
|-----------------------------------------------------------------------------------|
|------------------------------------------------------------------6----------------|
|-2-------------2--5---6--7-------------7--6--5--4--8--6--4--5--7--4--7--5--4--5--4-|
|---3-5-1-2-4-5--------4--5-2--3--4---1-------------6--4--2--3--5-----5--3--2--3--2-|

Riff 6 (2x)
|------------------------------------------------------------------------------|
|------------------------------------------------------------------------------|
|------------------------------------------------------------------------------|
|-------9--10--7-----------9--10--7-------------7--------6----6----------------|
|-7---7----------8---7---7----------8------4--5-----4--5----------5---4---1--0-|
|---6--------------9---6--------------9--0--------0--------0----0---0---0-5--2-|

Riff 7 (6x)- Slight bending through out (note slight variations in picking)
|-----------------------------------------|
|-----------------------------------------|
|-----------------------------------------|
|-----------------------------------------|
|-8-----7------4------7------5------3-----|
|-6-^-0-5-^-0--2-^-0--5-^-0--3-^-0--1-^-0-|

|---------------------------------------------------|
|---------------------------------------------------|
|---------------------------------------------------|
|---------------------------------------------------|
|-8-----7------4------7------5------7------5------3-|
|-6-^-0-5-^-0--2-^-0--5-^-0--3-^-0--5-^-0--3-^-0--1-|

Riff 8 (1x)
|---
|---
|---
|---
|-0-
|-2-

Riff 9a(4x)
|----------------|
|----------------|
|-5--------------|
|---7--8--4--7-8-|
|----------------|
|----------------|

Riff 9b(1x)
|--------------|
|--------------|
|--------------|
|-7-^-8--7-^-8-|
|--------------|
|--------------|

Then Repeat Riff 9a (4x)

Riff 9c(1x)
|--------------------------------------|
|--------------------------------------|
|-10-----------------------------------|
|-----8-7-----7-8-10-8-7----8-7-10-7-8-|
|----------10------------10------------|
|--------------------------------------|

Riff 10 (8x)
|--------------------|
|--------------------|
|--------------------|
|-5------------------|
|-3-7-8--4--7--8-----|
|---5-6--2--5--6-----|

Then Repeat The Enitre Riff 9 Cycle
Then Repeat Riff 10 (8x)

Riff 11a (2x)
|--------------------------------------------------|
|--------------------------------------------------|
|--------------------------------------------------|
|----------------------------------------------5---|
|-8---7b--8---7b--8---7--9--5--4ah--5--4ah---5---4-|
|-6-------6-------6---------3-------3--------3-----|

|----------------------------------------------------|
|----------------------------------------------------|
|----------------------------------------------------|
|----------------------------------------------------|
|-8---7b--8---7b--8---7--9--5--4ah--5--4ah---3--5--4-|
|-6-------6-------6---------3-------3--------3--5--4-|

Then Repeat Riff 10 (8x)

Riff 12a
|--------------------------------------------|
|--------------------------------------------|
|--------------------------------------------|
|-7------------------------------------------|
|---------8--7---3---6---2---7---3-----------|
|----10------5---1---4---0---5---1---5--9--8-|

Riff 12b
|----------------------------------------------------------------|
|----------------------------------------------------------------|
|----------------------------------------------------------------|
|-7--------------------------------------------------------------|
|---------8--7---3---6---2---7---3-----------8-^-7-8-^-7-10-^-7--|
|----10------5---1---4---0---5---1---5--9--8---------------------|

Then Riff 12a (2x)

Riff 12c
|--------------------|
|--------------------|
|--------------------|
|-7----------5-------|
|--------8---------7-|
|----10---------8----|

Riff 13 (2x)
|--------------------------|
|--------------------------|
|--------------------------|
|--------------------------|
|-7-4/-5-4-4/-5-4-4/-5-7-6-|
|-5-5/-6-5-5/-6-5-5/-6-8-7-|

Riff 13 Fill(played at the end of the riff cycle)
|-0--
|-0--
|----
|----
|----
|----

Then Play The Entire Riff 5 Cycle 2x (Note the speed changes)

Riff 14 (3x) (Note Slight Variations In Picking)
|-----------------------------------------|
|-----------------------------------------|
|-----------------------------------------|
|-10----10-----10-----10-----10-----------|
|-8---9-8---9--8---9--8---9--8---9--10--9-|
|-----7-----7------7------7------7--8---7-|

|------------------------------|
|------------------------------|
|------------------------------|
|-7-----7-----7-----7-----7----|
|-5--6--5--6--5--6--5--6--5--6-|
|----4-----4-----4-----4-----4-|

|-------------------------------------------|
|-------------------------------------------|
|-------------------------------------------|
|-10----10-----10-----10-----12--10---------|
|-8---9-8---9--8---9--8---9--10--8---12--10-|
|-----7-----7------7------7----------10--8--|

|------------------------------------|
|------------------------------------|
|------------------------------------|
|-7-----7-----7-----7-----7----------|
|-5--6--5--6--5--6--5--6--5--6--7--6-|
|----4-----4-----4-----4-----4--5--4-|

Riff 15 (1x)
|----------------------------------------|
|----------------------------------------|
|----------------------------------------|
|-10--------8------7---------------------|
|-8-----8---6---6--5---6-7-6-3-5-4-3--2--|
|-------6-------4------4-5-4-1-3-2-1--0--|

Riff 16a
|------------------------------------------------------------|
|------------------------------------------------------------|
|------3/-6--3/-6------3/-6--3/-6------3/-6-3/-6--------3/-6-|
|------------------------------------------------------------|
|------1/-4--1/-4------1/-4--1/-4------1/-4-1/-4--------1/-4-|
|-0-0-------------0-0-------------0-0-------------0-0--------|

Riff 16b
|------|
|------|
|-9/-8-
|------
|-7/-6-
|------

Then Riff 16a
(Then)Riff 16c
|----------------|
|----------------|
|----------------|
|-8----4--6--5ah-|
|----------------|
|----6-----------|

Then Riff 16a
(Then) Riff 16d
|------|
|------|
|-8/-9-
|------
|-6/-7-
|------

Then Riff 16a
(Then) Riff 16e
|----------|
|----------|
|----------|
|----------|
|-0-2-3-1--|
|-0-2-3-1--|

Then Riff 16a
Then Riff 16d
Then Riff 16a(only played 1/4 through)
End
Добавлено: 06.05.2015
Вам также может быть интересно:
Другие материалы по этой песне:
  • Аккорды и текст

Страница создана 06.05.2015
http://primanota.ru/embers-from-cremation/no-more-chords.htm
Привет, Гость.
Предлагаем пройти революционный курс по гитаре.
Подарок от PrimaNota.Ru, забирай!