PrimaNota.ru - самый крупный в мире бесплатный архив песенных текстов, аккордов, табулатур и нот


Embers From Cremation - Blessed Damnation - таба, видео

Регистрация Запомнить меня
Войти через:  Facebook Google Twitter Vk Yandex Mail.ru

Embers From Cremation - Blessed Damnation - таба, видео

Печатать
Просмотров: 132
Уроки эстрадного вокала в Санкт-Петербурге
Artist: Embers From Cremation
Song: Blessed Damnation
Album:Eroding In Abred/2004-2005 Demo
Released In 2014/2005
Written in 2002-2003
Tabbed By: Obscurr
D Standard Tuning

Riff 1a
|-----------------|
|-----------------|
|-----------------|
|-----------------|
|---4---4-----4---|
|-1---1---0-1---0-|

Riff 1b
|-----------|
|-----------|
|-----------|
|-----------|
|-5-6-5-3-9-|
|-3-4-3-1-7-|

Then Riff 1a

Riff 1c
|-----------|
|-----------|
|-----------|
|-----------|
|-5-6-5-3-3-|
|-3-4-3-1-1-|

Then Riff 1a

Riff 1d
|-----------|
|-----------|
|-6---3---9-|
|-----------|
|-4---1---7-|
|---0---0---|

Then Riff 1a and Riff 1b

Riff 2a (2x)
|---------------------|
|---------------------|
|---------------------|
|---------------------|
|---8---8---7-3-6-5---|
|-5---5---4---------3-|

Riff 2b
|------------------------|
|------------------------|
|------------------------|
|---7-----7----6---------|
|----------------3-6-5---|
|-4----4-----3---------3-|

Then Riff 2a (1x)

Riff 3
|-------|
|-------|
|-------|
|-------|
|-4-7-7-|
|-2-5-5-|

Riff 4 (1x)
|--------------------------------|
|-13--11--11--11--10--10--10--10-|
|-14--12--14--12--12--12--12--12-|
|-14--12--12--12--11--11--11--11-|
|-12--10--10--10--9---8----------|
|-------------------------8---9--|

Riff 5 (2x)
|---------------------|
|---------------------|
|---------------------|
|-------------5-------|
|-3-4-3-4-3-4-3-5-6-4-|
|-1-2-1-2-1-2---3-4-2-|

|---------------------|
|---------------------|
|---------------------|
|-------------5-------|
|-3-4-3-4-3-5-3-5-6-4-|
|-1-2-1-2-1-3---3-4-2-|

Then Riff 4 (1x)
Then Riff 5 (2x)

Riff 6a (3x)
|----------|
|----------|
|----------|
|------3---|
|-3-4----1-|
|-1-2------|

Riff 6b
|------------------------------|
|------------------------------|
|------------------------------|
|------3-----------------------|
|-3-4----1-4-3-----------------|
|-1-2------------5-1-0-1-4-3-8-|

Riff 7a
|------------------|
|-8----2----5----4-|
|-9----3----6----5-|
|-9----3----6----5-|
|-7----1----4----3-|
|---0----0----0----|

Riff 7b
|-----------------------|
|-8----2----5---------4-|
|-9----3----6---------5-|
|-9----3----6---------5-|
|-7----1----4----3----3-|
|----0----0----0-5--0---|

Then Riff 7a
Riff 7c
|-----------------------------|
|-8----2--------------------4-|
|-9----3--------------------5-|
|-9----3--------------------5-|
|-7----1-------4-3-----3----3-|
|----0----0-1-------4--5--0---|

Then Repeat The Entire Riff 7 cycle

Riff 8
|----------------------|
|----------------------|
|----------------------|
|-6-5-3----------------|
|-------3-7-6--2-2-2-2-|
|--------------0-0-0-0-|

Riff 9 (2x)
|------------------------------|
|------------------------------|
|------------------------------|
|----2-3-------------2-3-----5-|
|-1-------2--------1-----2-----|
|-3----------4--5--3-------4---|

Then Entire Riff 6 Cycle
Then Entire Riff 7 Cycle

Riff 10 (2x)
|-------------------------------|
|-2--3--1--5--4--2--3-----------|
|-3--4--2--7--6--3--4---5--1--3-|
|-3--4--2--7--6--3--4---7--3--5-|
|-1--2--0--5--4--1--2---7--3--5-|
|-----------------------5--1--3-|

Riff 11a
|-----------|
|-----------|
|-----------|
|-----------|
|---4---4---|
|-1---1---0-|

Riff 11b
|------------|
|-3--2--3--4-|
|-4--3--4--5-|
|-4--3--4--5-|
|-2--1--2--3-|
|------------|

Then Riff 11a

Riff 11c
|---------------|
|-3--2----------|
|-4--3--5--1--3-|
|-4--3--7--3--5-|
|-2--1--7--3--5-|
|-------5--1--3-|

Then Riff 11a
Then Riff 11b
Then Riff 11a

Riff 11d
|-------------------|
|-3--2--------------|
|-4--3--------------|
|-4--3--------------|
|-2--1--4-5-4-3-4-2-|
|-------2-3-2-1-2-0-|

End
Добавлено: 06.05.2015
Другие материалы по этой песне:
  • Аккорды и текст

Страница создана 06.05.2015
http://primanota.ru/embers-from-cremation/blessed-damnation-chords.htm
Привет, Гость.
Предлагаем пройти революционный курс по гитаре.
Подарок от PrimaNota.Ru, забирай!