PrimaNota.ru - самый крупный в мире бесплатный архив песенных текстов, аккордов, табулатур и нот


Emberghost - Enemy - таба, видео

Регистрация Запомнить меня
Войти через:  Facebook Google Twitter Vk Yandex Mail.ru

Emberghost - Enemy - таба, видео

Печатать
Просмотров: 136
Новый альбом группы 'Черный Кузнец' по культовому сериалу 'Сверхъестественное'!
hey..sup? this is probably the only tab for this song because emberghost is kinda new
but............ they're really good so you should have a listen to sum of their songs.

these are some sites:
http://www.garageband.com/artist/emberghost
www.emberghost.com (under construction)

Band: Emberghost
Song: Enemy - link:(http://www.garageband.com/mp3/emberghost-Enemy.mp3?|pe1|S8LTM0LdsaSnYFG1ZmE)
Tuning: Drop D (DADGBE)
No. of guitarists: 1
Keys: 
~ let ring
x repeat - x1 = repeat once
. palm mute


Intro 

E|------|
B|------|
G|------|
D|------|
A|-0~---|
D|-0~---| (play with no volume, then slowly raise it to max)

E|-------------------------------|
B|-------------------------------|
G|-------------------------------|
D|-------------------------------|
A|-----5-----7-----8-----7-----4-|
D|-0-0---0-0---0-0---0-0---0-0---|
   . .   . .   . .   . .   . .

E|----------------------------------|
B|----------------------------------|
G|----------------------------------|
D|----------------------------------|
A|-------5-----7-----8-----7-----10-|
D|-0-0-0---0-0---0-0---0-0---0-0----|
   . . .   . .   . .   . .   . .

E|-------------------------------------------|
B|-------------------------------------------|
G|-------------------------------------------|
D|-------------------------------------------|
A|------12-----10-----13-----12-----10-------|
D|0-0-0----0-0----0-0----0-0----0-0----0-0-0-| x1
  . . .    . .    . .    . .    . .    . . .

E|----------------------------------------|
B|----------------------------------------|
G|----------------------------------------|
D|----------------------------------------|
A|-12---10---12---13---12---10---12-------|
D|----0----0----0----0----0----0----0-0-0-| x1
      .    .    .    .    .    .    . . .

E|--------------------------------------------------------------|
B|--------------------------------------------------------------|
G|--------------------------------------------------------------|
D|--------------------------------------------------------------|
A|-12---10---12---13---12---13---15---17---15---17---19---19~---|
D|----0----0----0----0----0----0----0----0----0----0------------|
      .    .    .    .    .    .    .    .    .    .

E|------------------------------------------------------|
B|------------------------------------------------------|
G|-----7-----9----10-----6-----7-----9----10--14-1210---|
D|-000-x-000-x-000-x-000-x-000-x-000-x-000-x---x--x-x---|
A|-000-5-000-7-000-8-000-4-000-5-000-7-000-8--12-10-8---|
D|-000---000---000---000---000---000---000--------------|

E|-----------------------------------------------------|
B|-----------------------------------------------------|
G|-----14-----12-----15-----14-----17-----19-----21~---|
D|-000--x-000--x-000--x-000--x-000--x-000--x-000--x~---|
A|-000-12-000-10-000-13-000-12-000-15-000-17-000-19~---|
D|-000----000----000----000----000----000----000-------|

E|-----------------------------------------------------|
B|-----------------------------------------------------|
G|-----------------------------------------------------|
D|-----------------------------------------------------|
A|-----------------------------------------------------|
D|-12-12-141514-12-12-141514-10-10-141514-10-10-141514-|

E|-------------------------------------------------|
B|-------------------------------------------------|
G|-------------------------------------------------|
D|-------------------------------------------------|
A|-------------------------------------------------|
D|-8-8-141514-8-8-141514-10-10-141514-10-10-141514-| x2

E|-------------------|
B|-------------------|
G|-------------------|
D|-12121212-14-15-17-|
A|-12121212-14-15-17-|
D|-12121212----------| x1

E|-------------------------------------------------|
B|-------------------------------------------------|
G|-------------------------------------------------|
D|-------10-------12-------10-------12-------10----|
A|-------10-------12-------10-------12-------10----|
D|-10-10----10-10----10-10----10-10----10-10-------|
    .  .     .  .     .  .     .  .     .  .

E|--------------------------------|
B|--------------------------------|
G|--------------------------------|
D|-----8-----10-----8-----8-----8-|
A|-----8-----10-----8-----8-----8-|
D|-8-8---8-8----8-8---8-8---8-8---|
   . .   . .    . .   . .   . .

E|--------------------------|
B|--------------------------|
G|--------------------------|
D|-------10-------10p12-10~-|
A|-------10-------10p12-10~-|
D|-10-10----10-10-------10~-|
    .  .     .  .

Only the bass plays in the verse

Chorus: 

E|-------------------|
B|-------------------|
G|-------------------|
D|-12121212-14-15-17-|
A|-12121212-14-15-17-|
D|-12121212----------|  repeat until the end of chorus

Solo (after 1st chorus)

E|--------------------------------------|
B|--------------------------------------|
G|--------------------------------------|
D|-141414121212151515141414141414141414-|
A|--------------------------------------|
D|--------------------------------------| x3

E|--------------------------|
B|--------------------------|
G|--------------------------|
D|-141414121212101010777777-|
A|--------------------------|
D|--------------------------|

E|--------------------------------------|
B|--------------------------------------|
G|--------------------------------------|
D|-888777555333333333333333222555333333-|
A|--------------------------------------|
D|--------------------------------------|

if you have any suggestions or comments just message me or dun bother at all.
Добавлено: 22.05.2012
Вам также может быть интересно:
Другие материалы по этой песне:
  • Аккорды и текст

Страница создана 22.05.2012
http://primanota.ru/emberghost/enemy-chords.htm
Привет, Гость.
Предлагаем пройти революционный курс по гитаре.
Подарок от PrimaNota.Ru, забирай!