PrimaNota.ru - самый крупный в мире бесплатный архив песенных текстов, аккордов, табулатур и нот


Emarosa - Breather - таба, видео

Регистрация Запомнить меня
Войти через:  Facebook Google Twitter Vk Yandex Mail.ru

Emarosa - Breather - таба, видео

Печатать
Просмотров: 168
Breather
By:Emarosa
Album:This is Your Way Out

this is a short song by Emarosa.. Standard tuning would be fine...^^

Im not very sure of the rhythm parts coz the keyboard blends in with it..

Anyway, here's the tab..

Intro:
 |---------------------------------------|
 |---------------------------------------|
 |---10~-------10~-------10~-------10~---|
 |---10~-------10~-------10~-------10~---|
 |---8~--------8~--------8~--------8~----|
 |---------------------------------------|

then:
 |-------------------------------------------|
 |---------------------------------------13--|
 |-------12----13-12---12----12----13-12-----|
 |----10----10------10----10----10-----------|
 |--8----------------------------------------|
 |-------------------------------------------|

 |-------------------------------------------|
 |---------------------------------------13--|
 |-------12----13-12---12----12----13-12-----|
 |----10----10------10----10----10-----------|
 |--8----------------------------------------|
 |-------------------------------------------|

 |-------------------------------------------|
 |---------------------------------------13--|
 |-------12----13-12---12----12----13-12-----|
 |----10----10------10----10----10-----------|
 |--8----------------------------------------|
 |-------------------------------------------|

 |-------------------------------------------|
 |---------------------------------------13--|
 |-------12----13-12---12----12----13-12-----|
 |----10----10------10----10----10-----------|
 |--8----------------------------------------|
 |-------------------------------------------|

[repeat 2 times...]

then:
 |------------------------|
 |------------------------|
 |------------------------|
 |--3~-5~-6~----3~-6~-5~--|
 |--3~-5~-6~----3~-6~-5~--|
 |--1~-3~-4~----1~-4~-3~--|

 |-----------------------|
 |-----------------------|
 |-----------------------|
 |--3~-5~-6~---3~-5~-6~--|
 |--3~-5~-6~---3~-5~-6~--|
 |--1~-3~-4~---1~-3~-4~--|


 |-----------------------|
 |-----------------------|
 |-----------------------|
 |--3~-5~-6~---3~-5~-6~--|
 |--3~-5~-6~---3~-5~-6~--|
 |--1~-3~-4~---1~-3~-4~--|

 |-----------------------|
 |-----------------------|
 |-----------------------|
 |--3~-5~-6~---3~-5~-6~--|
 |--3~-5~-6~---3~-5~-6~--|
 |--1~-3~-4~---1~-3~-4~--|

(1:26)the other guitar comes in:
 |-------------------------------------------|
 |---------------------------------------13--|
 |-------12----13-12---12----12----13-12-----|
 |----10----10------10----10----10-----------|
 |--8----------------------------------------|
 |-------------------------------------------|

 |-------------------------------------------|
 |---------------------------------------13--|
 |-------12----13-12---12----12----13-12-----|
 |----10----10------10----10----10-----------|
 |--8----------------------------------------|
 |-------------------------------------------|

 |-------------------------------------------|
 |---------------------------------------13--|
 |-------12----13-12---12----12----13-12-----|
 |----10----10------10----10----10-----------|
 |--8----------------------------------------|
 |-------------------------------------------|

 |-------------------------------------------|
 |---------------------------------------13--|
 |-------12----13-12---12----12----13-12-----|
 |----10----10------10----10----10-----------|
 |--8----------------------------------------|
 |-------------------------------------------|

End at:
 |------|
 |------|
 |------|
 |--3~--|
 |--3~--|
 |--1~--|
Добавлено: 08.06.2012
Другие материалы по этой песне:

Страница создана 11.03.2012
http://primanota.ru/emarosa/breather-chords.htm
Привет, Гость.
Предлагаем пройти революционный курс по гитаре.
Подарок от PrimaNota.Ru, забирай!