PrimaNota.ru - самый крупный в мире бесплатный архив песенных текстов, аккордов, табулатур и нот


Emanuel - The New Violence - таба, бас-таба, видео

Регистрация Запомнить меня
Войти через:  Facebook Google Twitter Vk Yandex Mail.ru

Emanuel - The New Violence - таба, бас-таба, видео

Печатать
Просмотров: 148
This is a band that is not in the database yet but should be, go to vagrant records
website and you will see that I didn't make them up.

Band: Emanuel
Song: "The New Violence"
Album: Soundtrack to a Headrush
Tabbed By: dsniderman

Standard Tuning

Intro: x2
E--------------------------------------------------------|
B--------------------------------------------------------|
G----------------7-7-7-7-7-7---------------7--4/6---4/6--|
D---6-6-6/4-4-4--7-7-7-7-7-7--6-6-6/4-4-4--7--x-x---x-x--|
A---6-6-6/4-4-4--5-5-5-5-5-5--6-6-6/4-4-4--5--2/4---2/4--|
E---4-4-4/2-2-2---------------4-4-4/2-2-2----------------|

E----------------------------------------------------|
B----------------------------------------------------|
G----------------7-7-7-7-7-7--4/6~-666--4/6~-666-----|
D---6-6-6/4-4-4--7-7-7-7-7-7--x/x~-xxx--x/x~-xxx-----|
A---6-6-6/4-4-4--5-5-5-5-5-5--2/4~-444--2/4~-444-----|
E---4-4-4/2-2-2--------------------------------------|

Pre Chorus: x1
E-----------------------------------------------------|
B-----------------------------------------------------|
G---------------------------------------4-44/66666----|
D---4-4/6-4/6x---------------4-4/6-4/6--x-xx/xxxxx----|
A---4-4/6-4/6x---------------4-4/6-4/6--2-22/44444----|
E---2-2/4-2/4x---------------2-2/4-2/4----------------|

Chorus: x2
E--------------------------------------------------|
B--------------------------------------------------|
G--------------------------------------------------|
D---6-6-666--4-4-444--22-2-2-2-2-2-22--44----------|
A---6-6-666--4-4-444--22-2-2-2-2-2-22--44----------|
E---4-4-444--2-2-222--00-0-0-0-0-0-00--22----------|

E--------------------------------------------------|
B--------------------------------------------------|
G--------------------------------------------------|
D---6-6-666--4-4-444--22x-22x-22x-22x--444-6~------|
A---6-6-666--4-4-444--22x-22x-22x-22x--444-6~------|
E---4-4-444--2-2-222--00x-00x-00x-00x--222-4~------|

Verse: x2
E---------xx-xx------------------xx-xx-------|
B---------xx-xx------------------xx-xx-------|
G---------xx-xx------------------xx-xx-------|
D---------xx-xx------------------xx-xx-------|
A---------xx-xx------------------xx-xx-------|
E---------xx-xx------------------xx-xx-------|

Verse Cont: palm mute Intro x1

Intro x2

Pre Chorus x1

Chorus x2

Interlude: x3
E--------------------------------------------------------|
B--------------------------------------------------------|
G---------7777--------6666--------4444--4-4/6--4-4/6-----|
D---2222--xxxx--2222--xxxx--2222--xxxx--0-4/6--0-4/6-----|
A---2222--5555--2222--4444--2222--2222--0-2/4--0-2/4-----|
E---0000--------0000--------0000-------------------------|

Post Interlude: x2
E------------------------|
B------------------------|
G------4-4/6--4-4/6------|
D------0-4/6--0-4/6------|
A------0-2/4--0-2/4------|
E------------------------|

Chorus: x4

End On:
E-------------|
B-------------|
G------6~-----|
D------6~-----|
A------4~-----|
E-------------|

Hope you enjoy this song as much as I do!
Emanuel Rules!!!

www.thisisemanuel.com
Добавлено: 19.05.2012
Другие материалы по этой песне:
  • Аккорды и текст

Страница создана 08.03.2012
http://primanota.ru/emanuel/the-new-violence-chords.htm
Привет, Гость.
Предлагаем пройти революционный курс по гитаре.
Подарок от PrimaNota.Ru, забирай!