PrimaNota.ru - самый крупный в мире бесплатный архив песенных текстов, аккордов, табулатур и нот


Emanuel - Make Tonight - таба, бас-таба, видео

Регистрация Запомнить меня
Войти через:  Facebook Google Twitter Vk Yandex Mail.ru

Emanuel - Make Tonight - таба, бас-таба, видео

Печатать
Просмотров: 209
Song: Make Tonight
Album: Soundtrack To A Headrush
Band: Emanuel
Tabber: Calum Neil (afirock74@hotmail.com)
Tuning: Drop d


Guitar 1 intro/Verse:
e|--1---2----1/2/1---|
B|---2---2--2-----2--|
G|-------------------|
D|----4---4----------|
A|-------------------|
d|-------------------|

Guitar 2:
e|--13------------------------13--|
B|-------7-------------7----------|
G|--------------------------------|
D|------------6--4----------------|
A|--------------------------------|
d|--------------------------------|

Verse Guitar 2:
e|--9/11------2---------13--|-9-11-----------------|
B|--------------------------|------9-11--7-9--6-7--|
G|--------------------------|----------------------|
D|--------------------------|----------------------|
A|--------------------------|----------------------|
d|--------------------------|----------------------|

Chorus:
e|-----------------------------------------------------------------|
B|-----------------------------------------------------------------|
G|--11-11-11--------6-6-6-------6-6-6--4-4-4--4-4-4----------------|
D|--x--x--x---1-1-1-x-x-x-1-1-1-x-x-x--4-4-4--4-4-4--4-4-4--4-4-4--|
A|--9--9--9---1-1-1-4-4-4-1-1-1-4-4-4--2-2-2--2-2-2--4-4-4--4-4-4--| 2x
d|------------1-1-1-------1-1-1----------------------4-4-4--4-4-4--|

e|---------------------------------------------------------------------------------------|
B|---------------------------------------------------------------------------------------|
G|--11-11-11--------6-6-6-------6-6-6--4-4-4--4-4-4-----------------4-4-4-4--6-6-6-6-6-6-|
D|--x--x--x---1-1-1-x-x-x-1-1-1-x-x-x--4-4-4--4-4-4--4-4-4--6-6-6---4-4-4-4--6-6-6-6-6-6-|
A|--9--9--9---1-1-1-4-4-4-1-1-1-4-4-4--2-2-2--2-2-2--4-4-4--6-6-6---2-2=2-2--4-4=4-4=4-4-|
d|------------1-1-1-------1-1-1----------------------4-4-4--6-6-6------------------------|

Chorus 2:
e|------------------------------------------|
B|------------------------------------------|
G|---------------4-4-4--4-4-4--6-6-6-6-6-6--|
D|--1-1-1-1-1-1--4-4-4--4-4-4--6-6-6-6-6-6--|
A|--1-1-1-1-1-1--2-2-2--2-2-2--4-4-4-4-4-4--|
d|--1-1-1-1-1-1-----------------------------|
Добавлено: 12.04.2012
Другие материалы по этой песне:

Страница создана 12.04.2012
http://primanota.ru/emanuel/make-tonight-chords.htm
Привет, Гость.
Предлагаем пройти революционный курс по гитаре.
Подарок от PrimaNota.Ru, забирай!