PrimaNota.ru - самый крупный в мире бесплатный архив песенных текстов, аккордов, табулатур и нот


Emanuel - Hotline - текст песни, таба, видео

Регистрация Запомнить меня
Войти через:  Facebook Google Twitter Vk Yandex Mail.ru

Emanuel - Hotline - текст песни, таба, видео

Печатать
Просмотров: 373
Уроки эстрадного вокала в Санкт-Петербурге
-------------------------------------------------------------------------------
                             Song Name - The Hotline          Band - Emanuel
-------------------------------------------------------------------------------
Tabbed by: Andrew Boss
Email:  Boss_man118@hotmail.com

Tuning: Db Ab Db Gb Bb Eb

e|------------------------------------------------------------------|
B|------------------------------------------------------------------|
G|------------------------------------------------------------------|
D|---3-3-3--0-0--12--0-0--10--0-0--12--0-0--10---3-3-3--------------|
A|---3-3-3--0-0--12--0-0--10--0-0--12--0-0--10---3-3-3--------------|
E|---3-3-3--0-0--12--0-0--10--0-0--12--0-0--10---3-3-3--------------|

e|-----------------------------------------------------------------------------|
B|-----------------------------------------------------------------------------|
G|-----------------------------------------------------------------------------|
D|--0-0--12--0-0--10--0-0--12--0-0--10----3--5---------------------------------|
A|--0-0--12--0-0--10--0-0--12--0-0--10----3--5---------------------------------|
E|--0-0--12--0-0--10--0-0--12--0-0--10----3--5---------------------------------|

e|-----------------------------------------------------------------------------|
B|-----------------------------------------------------------------------------|
G|-----------------------------------------------------------------------------|
D|--0-0--12--0-0--10--0-0--12--0-0--10-----3-3-3-3-----------------------------|
A|--0-0--12--0-0--10--0-0--12--0-0--10-----3-3-3-3-----------------------------|
E|--0-0--12--0-0--10--0-0--12--0-0--10-----3-3-3-3-----------------------------|

e|-----------------------------------------------------------------------------|
B|-----------------------------------------------------------------------------|
G|-----------------------------------------------------------------------------|
D|--5-5-5-5-5-5--3-5-6-5-3-5-3-0-3---------------------------------------------| x2
A|--5-5-5-5-5-5--3-5-6-5-3-5-3-0-3---------------------------------------------|
E|--5-5-5-5-5-5--3-5-6-5-3-5-3-0-3---------------------------------------------|

e|-------------------------------------------------------------------------------------|
B|----3~--------------6~-------------8--3~---------------------------------------------|
G|----2~--------------5~-------------7--2~---------------------------------------------|
D|----0~---let ring-----3~---let ring----5--0~-let ring---333333333333---555~----------|
A|----0~--------------3~-------------5--0~----------333333333333---555~-let ring-------|
E|----0~--------------3~-------------5--0~----------333333333333---555~----------------|

e|--------------------------------------------------------------------------------|
B|--------------------------------------------------------------------------------|
G|--------------------------------------------------------------------------------|
D|----0----------3--------5-----0--------3--------6-5-3-5-3-0-0~------------------|
A|----0--x16-----3-x14---5-x2--0--x16---3-x9-----6-5-3-5-3-0-0~-Let Ring----------|
E|----0-----------3-------5-----0--------3--------6-5-3-5-3-0-0~------------------|

e|------------------------------------------------------------------|
B|------------------------------------------------------------------|
G|------------------------------------------------------------------|
D|---3-3-3--0-0--12--0-0--10--0-0--12--0-0--10---3-3-3--------------|
A|---3-3-3--0-0--12--0-0--10--0-0--12--0-0--10---3-3-3--------------|
E|---3-3-3--0-0--12--0-0--10--0-0--12--0-0--10---3-3-3--------------|

e|----------------------------------------------------------------|
B|----------------------------------------------------------------|
G|----------------------------------------------------------------|
D|--0-0--12--0-0--10--0-0--12--0-0--10----3--5--------------------|
A|--0-0--12--0-0--10--0-0--12--0-0--10----3--5--------------------|
E|--0-0--12--0-0--10--0-0--12--0-0--10----3--5--------------------|

e|------------------------------------------------------------------|
B|------------------------------------------------------------------|
G|------------------------------------------------------------------|
D|--0-0--12--0-0--10--0-0--12--0-0--10-----3-3-3-3------------------|
A|--0-0--12--0-0--10--0-0--12--0-0--10-----3-3-3-3------------------|
E|--0-0--12--0-0--10--0-0--12--0-0--10-----3-3-3-3------------------|

e|------------------------------------------------------------------|
B|------------------------------------------------------------------|
G|------------------------------------------------------------------|
D|--5-5-5-5-5-5--3-5-6-5-3-5-3-0-3----------------------------------| x2
A|--5-5-5-5-5-5--3-5-6-5-3-5-3-0-3----------------------------------|
E|--5-5-5-5-5-5--3-5-6-5-3-5-3-0-3----------------------------------|


The second time in the second verse, you play this over the whats played above.
e|-----------------------------------------------------------------------------------|
B|-6-----------8--------6-------9-------66666666666666--888--101010101010101010------|
G|-x---x13----x--x3----x--x13--x--x3---xxxxxxxxxxxxxx---xxx--x-x-x-x-x-x-x-x-x-x-----|
D|-3----------5--------3--------6-------3333333333333---555--7-7-7-7-7-7-7-7-7-7-----|
A|-----------------------------------------------------------------------------------|
E|-----------------------------------------------------------------------------------|

e|---------------------------------------------------------------------------------------|
B|----3~--------------6~-------------8--3~-----------------------------------------------|
G|----2~--------------5~-------------7--2~-----------------------------------------------|
D|----0~---let ring-----3~---let ring----5--0~-let ring---333333333333---555~------------|
A|----0~--------------3~-------------5--0~----------333333333333---555~-let ring---------|
E|----0~--------------3~-------------5--0~----------333333333333---555~------------------|

e|-------------------------------------------------------------------------------|
B|-------------------------------------------------------------------------------|
G|-------------------------------------------------------------------------------|
D|----0----------3--------5-----0--------3--------6-5-3-5-3-0-0~-----------------|
A|----0--x16-----3-x14---5-x2--0--x16---3-x9-----6-5-3-5-3-0-0~-Let Ring---------|
E|----0-----------3-------5-----0--------3--------6-5-3-5-3-0-0~-----------------|

e|-----------------------------------------------------------------------------|
B|-----------------------------------------------------------------------------|
G|-----------------------------------------------------------------------------|
D|-----8-8-8---10-10-12--0-6-5-3-5-3-0-0-6-5-3-5-3-0---------------------------|  x2
A|-----8-8-8---10-10-12--0-6-5-3-5-3-0-0-6-5-3-5-3-0---------------------------|
E|-----8-8-8---10-10-12--0-6-5-3-5-3-0-0-6-5-3-5-3-0---------------------------|

e|-----------------------------------------------------------------------------|
B|-----------------------------------------------------------------------------|
G|-----------------------------------------------------------------------------|
D|-----8-8-8---10-10-12--0-0-0---3-3-3---5-5-5--3--5---------------------------|
A|-----8-8-8---10-10-12--0-0-0---3-3-3---5-5-5--3--5---------------------------|
E|-----8-8-8---10-10-12--0-0-0---3-3-3---5-5-5--3--5---------------------------|

e|-----------------------------------------------------------------------------|
B|-----------------------------------------------------------------------------|
G|-----------------------------------------------------------------------------|
D|---8-8-8---10-10-12----------------------------------------------------------|
A|---8-8-8---10-10-12----------------------------------------------------------|
E|---8-8-8---10-10-12----------------------------------------------------------|

e|---------------------------------------------------------------------------------------|
B|----3~--------------6~-------------8--3~--------------6~-------------------------------|
G|----2~--------------5~-------------7--2~--------------5~-------------------------------|
D|----0~---let ring-----3~---let ring----5--0~-let ring-------3~---Let Ring--------------|
A|----0~--------------3~-------------5--0~--------------3~-------------------------------|
E|----0~--------------3~-------------5--0~--------------3~-------------------------------|

e|-------------------------------------------------------------------------------|
B|-------------------------------------------------------------------------------|
G|-------------------------------------------------------------------------------|
D|----0----------3--------5-----0--------3--------6-5-3-5-3-0-0~-----------------|
A|----0--x16-----3-x14---5-x2--0--x16---3-x9-----6-5-3-5-3-0-0~-Let Ring---------|
E|----0-----------3-------5-----0--------3--------6-5-3-5-3-0-0~-----------------|

e|-------------------------------------------------------------------------------|
B|-------------------------------------------------------------------------------|
G|-------------------------------------------------------------------------------|
D|----0----------3--------5-----0--------3-------5-------------------------------| x2
A|----0--x16-----3-x14---5-x2--0--x16---3-x9----5--x7----------------------------|
E|----0-----------3-------5-----0--------3-------5-------------------------------|


The second time through the one right above, this is played over it.
e|-----------------------------------------------------------------------------|
B|-----------------------------------------------------------------------------|
G|-------7--5--7-10--9---------------------------------------------------------|
D|-------x--x--x--x--x----x3---------------------------------------------------|
A|-------5--3--5--8--7---------------------------------------------------------|
E|-----------------------------------------------------------------------------|

e|-----------------------------------------------------------------------------|
B|-----------------------------------------------------------------------------|
G|-----------------------------------------------------------------------------|
D|---8-8-8-8-8-8-8-8-8-8-8-8-8-8-8-8--10-10-10-10-10-10-10-10------------------|
A|---8-8-8-8-8-8-8-8-8-8-8-8-8-8-8-8--10-10-10-10-10-10-10-10------------------|
E|---8-8-8-8-8-8-8-8-8-8-8-8-8-8-8-8--10-10-10-10-10-10-10-10------------------|

e|-----------------------------------------------------------------------------|
B|-----------------------------------------------------------------------------|
G|-----------------------------------------------------------------------------|
D|--11-11-11-11-11-11-11-11--------0~-----------------10--12-12----------------|
A|--11-11-11-11-11-11-11-11--------0~--Let Ring--------10--12-12---------------|
E|--11-11-11-11-11-11-11-11--------0~-----------------10--12-12----------------|
PM |-^--^-^--^--^---^--^--^----------------------------------------------------|

e|-------------------------------------------------------|---|
B|-------------------------------------------------------|---|
G|-------------------------------------------------------|---|
D|-----5-3-0-0~------------------10-12-12~--------------|----|
A|-----5-3-0-0~--Let Ring---------10-12-12~--------------|---|
E|-----5-3-0-0~------------------10-12-12~--------------|----|

| /  slide up
|   slide down
| h  hammer-on
| p  pull-off
| ~  Let Ring
| +  harmonic
| x  Mute note
Добавлено: 07.04.2012
Другие материалы по этой песне:
  • Аккорды и текст

Страница создана 07.04.2012
http://primanota.ru/emanuel/hotline-chords.htm
Привет, Гость.
Предлагаем пройти революционный курс по гитаре.
Подарок от PrimaNota.Ru, забирай!