PrimaNota.ru - самый крупный в мире бесплатный архив песенных текстов, аккордов, табулатур и нот


Emanuel - Breathe Underwater - таба, бас-таба, видео

Регистрация Запомнить меня
Войти через:  Facebook Google Twitter Vk Yandex Mail.ru

Emanuel - Breathe Underwater - таба, бас-таба, видео

Печатать
Просмотров: 193
-----------------------------------------------------------------------------
                             Breathe Underwater - Emanuel
-----------------------------------------------------------------------------
Tabbed by: kiefermatot
Email: kiefer.is.niifty@hotmail.com

Tuning: Standard 


         
Intro: Guitar 1
E| -----------------------------------------------------------------------|
B|--------------------------------5p4-------------------------------------|
G|-------4---4--------------4---------6-4------3h4-------------3h4--6-4-3-|
D|--4h6----6---6-4h6---4h6---6---------------4----4---4-----4-------------|
A|------------------------------------------6--------6-----6--------------|
E|------------------------------------------------------------------------|


E|-------------------------------------------------------------------------|
B|------4--4---------------------------------------------------------------|
G|----4--4--4---4------3h4-------------3h4--------------3h4--6-4-3---------|
D|--6---------6------4-----4---4-----4-----4---4------4-------------4--6---|
A|------------------6--------6------6--------6------6----------------------|
E|-------------------------------------------------------------------------|

Intro: Guitar 2
e|------------------------------------------|
b|------------------------------------------|
g|xxxxxx----------------------------66666666|
d|xxxxxx-66666666-99999999-44444444-66666666|
a|xxxxxx-66666666-99999999-44444444-44444444|
e|xxxxxx-44444444-77777777-22222222---------|
        
Verse: Guitar 2
e|---------------------|
b|---------------------|
g|---------------------|
d|6~44-4-44-4-44-4-44-4|
a|6~44-4-44-4-44-4-44-4|
e|4~22-2-22-2-22-2-22-2|
PM  ..   ..   ..   .. 

Verse: Guitar 1


E|----------------------------------------------------------------------|
B|---------7-4-----4h5p4---------4h5p4--------------4h5p4---------------|
G|----3s4-----------------6-------------6-4-6--------------6-4----------|
D|--6------------------------4-4------------4--4-4--------------4-------|x2
A|----------------------------------------------------------------------|
E|----------------------------------------------------------------------|
     
Pre-chorus: Guitar 2
e|--------------------------|
b|--------------------------|
g|--------------------------|
d|66666666-22222222-44444444|
a|66666666-22222222-44444444|
e|44444444-00000000-22222222|

Pre-Chorus: Guitar 1

E|--------------------------------------------------------|
B|---------0-0-0-0-0-0-0-0-0-0----7-7-7-----5-------------|
G|-----3h4-----4-4-3-3-6-6-4-4---8-8-8-8---6--6-6-6s8s6---|
D|--6-----------------------------------------------------|
A|--------------------------------------------------------|
E|--------------------------------------------------------|

E|-------------------------------------------------------------|
B|---------0-0-0-0-0-0-0-0-0-0----7-7-7------------------------|
G|-----3h4-----4-4-3-3-6-6-4-4---8-8-8-8---7b8-8-8-8-8-8-8-8---|
D|--6----------------------------------------------------------|
A|-------------------------------------------------------------|
E|-------------------------------------------------------------|

  

Chorus 1: Both Guitars
e|------------------------------------------|
b|------------------------------------------|
g|xxxxxx----------------------------66666666|
d|xxxxxx-66666666-99999999-44444444-66666666|
a|xxxxxx-66666666-99999999-44444444-44444444|
e|xxxxxx-44444444-77777777-22222222---------|

Guitar two plays this on the other Choruses:

E|--------------------------------------------------------|
B|--999---------------------777---------------------------|
G|--xxx--88888--666--88888--xxx---88888--666--44444-------|
D|--666--xxxxx--xxx--xxxxx--444---xxxxx--xxx--xxxxx-------|x2
A|-------66666--444--66666--------66666--444--22222-------|
E|--------------------------------------------------------|
    
Bridge: Both Guitars
e|-------------------------------------|
b|-------------------------------------|
g|---------66666666--------------------|x3
d|22222222-66666666-4-66-4-66-4-66-4-66|
a|22222222-44444444-4-66-2-66-4-66-4-66|
e|00000000----------2-44-2-44-2-44-2-44|

   
Bridge cont.
e|---------|
b|---------|
g|---------|x1
d|22222222-|
a|22222222-|
e|00000000-|
PM........


Outro: Both Guitars
e|-------------------|
b|-------------------|
g|-------------------|x 5 or so times.
d|4-66-4-66-4-66-4-66|
a|4-66-4-66-4-66-2-66|
e|2-44-2-44-2-44-2-44|

| /  slide up
| \  slide down
| h  hammer-on
| p  pull-off
| ~  vibrato
| +  harmonic
| x  Mute note
=============================================================================
Добавлено: 18.06.2012
Другие материалы по этой песне:

Страница создана 24.02.2012
http://primanota.ru/emanuel/breathe-underwater-chords.htm
Привет, Гость.
Предлагаем пройти революционный курс по гитаре.
Подарок от PrimaNota.Ru, забирай!