PrimaNota.ru - самый крупный в мире бесплатный архив песенных текстов, аккордов, табулатур и нот


Emancipator - Soon It Will Be Cold Enough (album) - бас-таба, видео

Регистрация Запомнить меня
Войти через:  Facebook Google Twitter Vk Yandex Mail.ru

Emancipator - Soon It Will Be Cold Enough (album) - бас-таба, видео

Печатать
Просмотров: 95
-------------------------------------------------------------------------------
                   Emancipator - Soon It Will Be Cold Enough
                             FULL ALBUM Bass Tabs
-------------------------------------------------------------------------------

Notes: This is the tracklist from the original 2006 release, which includes Maps and Father King.
Tuning: EADG (Standard)
E-mail: jackevans1020@gmail.com

| /  slide up
| \  slide down
| h  hammer-on
| p  pull-off
| ~  vibrato
| +  harmonic
| x  Mute note

===============================================================================

#### 1. Eve ####
G|---------------------------------------------------------|
D|---------------------------------------------------------|
A|--0---0-0-0--0--2--0--3--2---3---3-3-3-------------------|
E|---------------------------------------3--3---3-3---3----|
  same throughout


#### 2. Soon It Will Be Cold Enough To Build Fires ####
G|--------------|
D|--1--0--------|
A|--------3--1--|
E|--------------|
  same throughout


#### 3. First Snow ####
section 1 (1:00-1:20)
G|------------------------------|------------------------------|
D|-----------2----2-------------|------------------------------|
A|--4\2/4------------2-----2----|--4\2/4------------2----------|
E|------------------------------|-----------2---4--------------|

section 2 (1:20-2:00)
G|-----------------------------------|-----------------------------------|
D|--------------2-2---2--------------|-----------------------------------|
A|--4-4--4---4----------2-2---2------|--4-4--4---4-----------------2-----|
E|-----------------------------------|-----------------------2--4--------|

play section 1 from 2:00-2:20
play section 2 from 3:02-4:00, fade out

outro  (4:32-4:54)
G|-----------------------------------|-----------------------------------|
D|--------------2--2--2--------------|-----------------------------------|
A|--4--4-----4----------2-2---2------|--4--4-----4---------------2--2--2-|
E|-----------------------------------|-------------------2--2--4---------|


#### 4. Wolf Drawn ####
(0:21)
G|------------------------------------|
D|------------------------------------|
A|--2------2----0--0--------0--0------|
E|------2-------------3--3------------|
  same throughout


#### 5. Anthem ####
G|--------------|
D|--5--3--------|
A|--------3--1--|
E|--------------|
  same throughout


#### 6. Smoke Signals ####
G|-------------------------|------------------|
D|-------------------------|------------------|
A|-----------7--7--6-------|------------------|
E|--4----4------------7\4--|--4--4--0--0-7-0--|
  same throughout                    


#### 7. When I Go ####
G|------------------|------------------|------------------|------------------|
D|----7---9--7--10\7|-----7--9--7--10\7|--5-----9--7--10\5|--5-----9--7--10\5|
A|--7---------------|--7---------------|-----5------------|-----5------------|
E|------------------|------------------|------------------|------------------|
  same throughout


#### 8. Periscope Up ####
-main-
G|--------------|
D|--------------|
A|--------------|
E|--5--5--3--3--|

same throughout except:

(0:48-0:58)
G|--------------------------|
D|--------------------------|
A|-----7--5--5--5--5--3--2--|
E|--5-----------------------|

##### 9. With Rainy Eyes #####

-intro-
G|-----0--2--|
D|-----------|
A|--3--------|
E|-----------|

-main-
G|-----------------------|--------------0--2--4--|
D|----------5--4---------|-----------------------|
A|--3--3-5--------5------|--3--3--5--5-----------|
E|-----------------------|-----------------------|
   same throughout


#### 10. Good Knight ####

G|------------------------------------------------------------------------|
D|------------------------------------------------------------------------|
A|--0--0--0--0--0---------------------------------------------------------|
E|-----------------1--1--1--1--1--1--0--0--0--0--0--0--3--3--3--3--3--3-3-|
   same throughout

#### 11. Lionheart ####

-main- 
G|----------------------------------|---------------------------------|
D|----------------------------------|---------------------------------|
A|-0-0-0-0-----------------0-0-0-0--|-0-0-0-0---------3-3-3-3-5-5-5-5-|
E|---------0-0-0-0-3-3-3-3----------|---------0-0-0-0-----------------|

-section 2- (1:35-1:45), (2:39-3:00)
G|-------------------------------|
D|-------------------------------|
A|--0-0---0----3-3---3--5-5---5--|
E|-------------------------------|

(3:00) let ring
G|-------|
D|-------|
A|-------|
E|--0----|

#### 12. Maps ####

G|--------6---------2---2--4---4-----|
D|-----6--------6-----2------4-------|
A|--4--------4-----------------------|
E|-----------------------------------|
  same throughout


#### 13. Father King ####

-intro-
G|-----|
D|-----|
A|--0--|
E|-----|

-main-
G|-------------------------------|--------------4/5--------------------|
D|-------------------------------|---------------------------------5/7-|
A|--0-0---0----------------------|--0-0---0-0--------------------------|
E|--------------1-1--1--3-3--3---|--------------------1-1--1--3--3-----|

#### 14. Darkest Evening of the Year ####

No bass.
Добавлено: 02.08.2015
Другие материалы по этой песне:
  • Аккорды и текст

Страница создана 02.08.2015
http://primanota.ru/emancipator/soon-it-will-be-cold-enough-album-chords.htm
Привет, Гость.
Предлагаем пройти революционный курс по гитаре.
Подарок от PrimaNota.Ru, забирай!