PrimaNota.ru - самый крупный в мире бесплатный архив песенных текстов, аккордов, табулатур и нот


Elysian Blaze - Sigh Of Night - аккорды и текст, таба, видео

Регистрация Запомнить меня
Войти через:  Facebook Google Twitter Vk Yandex Mail.ru

Elysian Blaze - Sigh Of Night - аккорды и текст, таба, видео

Печатать
Просмотров: 101
Sigh Of Night
Elysian Blaze
        elysianblaze@hotmail                 Elysian Blaze- Sigh of Night
-------------------------------------------------------------------------------
Tabbed by:thedarkone
Email:

Tuning:E (I think, never wrote tabs before but this is how i play it anyway)
intro riffs in 6/8
e|-----------------------------------------------------------------------------------|
B|-----------------------------------------------------------------------------------|
G|-----------------------------------------------------------------------------------|
D|--0-------------0------------0-----------0-----------------------------------------|
A|--2------4------2------4-----2-----4-----2------4----------------------------------|
E|--2------6------2------6-----2-----6-----2------6----------------------------------|

e|---------------------------------------------------|
B|---------------------------------------------------|
G|---------------------------------------------------|
D|----------------4---3-4-------------------4---3-4--|
A|--2-4-5-4-----4---4---------2-4-5-4-2---4----------|
E|-2--------7-6-------------2------------6-----------|
verse 1 and 2 in 4/4
e|----------------------------------------------------------|
B|----------------------------------------------------------|
G|----------------------------------------------------------|
D|--0-------0-------0------0-----------------0-------0------|
A|--2---4---2---4---2--4---2---4---1-1--1-1--2---4---2---4--|
E|--2---6---2---6---2--6---2---6---1-1--1-1--2---6---2---6--|
pre chorus   C#minor  and E minor
e|-----------------------------------------------------------------------------|
B|------------------------------------------------------------------------re---|
G|------------------------------------------------0----------------0-----peat--|
D|-----2---2---------2---2------2----------5----4---4--------5---4---4---this--|
A|---4---4---4---4----4---4---4---4------7---7--------7----7---7-------7-------|
E|-4-----------4------------4----------7-----------------7---------------------|
compressed second guitar part before and after 2nd verse-
e|--------------------------------------------------------|
B|------------------------10--------------------------10--|
G|---6--8--9--8--9--11-12-------6--8--9--8--9--11-12------|
D|------------------------7---------------------------7---|
A|---4--6--7--6--7--9--10-------4--6--7--6--7--9--10------|
E|--------------------------------------------------------|
lead to extensive(fucking magnificent)bridge piece- minor chords each 8 beat
e|-------------------------------------------------------------------------|
B|-----------d#-7------------4-------6----------3---10---------------------|
G|--------------8----6---1---5---3---7--5---0---4---11---6---4---8--hold---|
D|--------------8----8---3---5---5---7--7---2---4---11---6---6---8---til---|
A|-4--6--7--6---6----8---3--C---5--D5--7---2--B-f#9--c#4---6---6---fade--|
E|----------------a#-6--F------G-----A5--E--------------G#-D#6---------|
hollow and empty guitar ending
e|-------0---------0----------0-----------0----------0-----------0-----|
B|-----2---2-4-5-2---2-----2-----2--4-5-2---2------2---2--4-5--2----2--|
G|-----------------------------------------------2---------------------|
D|---------------------------------------------------------------------|
A|-4---------------------4---------------------------------------------|
E|---------------------------------------------------------------------|

e|-------0---------0---------------------------------0---------------------|
B|----2----2-4-5-2---2------4------------------------0---------------------|
G|--------------------------4----impro--in--scale----1---will-revise-soon--|
D|--------------------------6------------------------2-------with----------|
A|-2------------------------6------------------------2----keyboard-parts---|
E|------------------------G#-----------------------E---------------------|


| /  slide up
| \  slide down
| B  hammer-on
| p  pull-off
| ~  vibrato
| +  harmonic
| x  Mute note
===============================================================================
Добавлено: 01.07.2012
Другие материалы по этой песне:
  • Аккорды и текст

Страница создана 01.07.2012
http://primanota.ru/elysian-blaze/sigh-of-night-chords.htm
Привет, Гость.
Предлагаем пройти революционный курс по гитаре.
Подарок от PrimaNota.Ru, забирай!