PrimaNota.ru - самый крупный в мире бесплатный архив песенных текстов, аккордов, табулатур и нот


Elysia - Triumph - таба, видео

Регистрация Запомнить меня
Войти через:  Facebook Google Twitter Vk Yandex Mail.ru

Elysia - Triumph - таба, видео

Печатать
Просмотров: 143
Soz im not very good at this but atleast im trying


Intro (tremlo pick)
|-----------------------------------------------------|
|-----------------------------------------------------|
|-----------------------------------------------------|
|-----------------------------------------------------|
|---------------------1-------------------------------|
|--87-0-0-5-0-0-3-0-0-1(let it ring)------------------|


|--------------------|-------------------------|
|--------------------|-------------------------|
|--------------------|------1st time-----------|
|--------------------|-------------------------|
|-1-1-1-1-1-1-111-x3-|-1111111111111111-(1's---|
|-1-1-1-1-1-1-111----|-1111111111111111--------|

|--------------------------------|
|--------------------------------|
|--------2nd time----------------|
|--------------------------------|
|-11111111-11-11111111-11--11-11-|
|-11111111-11-11111111-11--11-11-|

|----------------------------------------------------|
|----------------------------------------------------|
|----------------------------------------------------|
|----------------------------------------------------|
|----------------------------------------------------|
|----------------------------------------------------|

breakdown bit intro
|------------------------------------------------------|
|------------------------------------------------------|
|------------------------------------------------------|
|------------------------------------------------------|
|--------------------------------------------------0-0-|
|-0---0-0-0--0-0-0--0-0-0-0---0--0-0-0--0-0-0--0-0-0-0-|

breakdown bit
|---------------------------------------------------------------------|
|---------------------------------------------------------------------|
|---------------------------------------------------------------------|
|---------------------------------------------------------------------|
|-0-0-0-0-0--0-0-0--0-0-0-0-x2-(after played twice slow it down a bit-|
|-0-0-0-0-0--0-0-0--0-0-0-0-------------------------------------------|

play first Intro bit again

thats all ive tabbed so far but ill fig out the rest a put it up
Добавлено: 18.05.2012
Другие материалы по этой песне:
  • Аккорды и текст

Страница создана 03.05.2012
http://primanota.ru/elysia/triumph-chords.htm
Привет, Гость.
Предлагаем пройти революционный курс по гитаре.
Подарок от PrimaNota.Ru, забирай!