PrimaNota.ru - самый крупный в мире бесплатный архив песенных текстов, аккордов, табулатур и нот


Elysia - November 5th - таба, видео

Регистрация Запомнить меня
Войти через:  Facebook Google Twitter Vk Yandex Mail.ru

Elysia - November 5th - таба, видео

Печатать
Просмотров: 101
-------------------------------------------------------------------------------
     NOVEMBER 5TH - Elysia
-------------------------------------------------------------------------------
Tabbed by: Johnny Grimm
Email: Scr3mojerk@gmail.com/johnnytoons@hotmail.com 
 
www.myspace.com/johnnytoons

heres a video of me playing it:
http://www.youtube.com/watch?v=0WixtzFjfvU&feature=watch_response


I know the whole song
but tabbing takes time,
so here's the intro for
the lead guitar so far.

xxx





Tuning:Standard


e|----2-2------2-2------2-2------2-2-----------------------------------------|
B|-------3-3------3-3------3-3------3-3--0-----------------------------------|
G|--------0--------0--------0--------0---0-----------------------------------|
D|--2--------2--------2--------2---------2-----------------------------------|
A|--3--------3--------3--------3---------3-----------------------------------|
E|---------------------------------------------------------------------------|

e|---------------------------------------------------------------------------|
B|---------------------------------------------------------------------------|
G|--16-16-16-16-16-16-16-16-16-16---14-14-14-14-14---11-11-11-11-11----------|
D|--x--x--x--x--x--x--x--x--x--x----x--x--x--x--x----x--x--x--x--x----2x-----|
A|--14-14-14-14-14-14-14-14-14-14---12-12-12-12-12---9--9--9--9--9-----------|
E|--0--0--0--0--0--0--0--0--0--0----0--0--0--0--0----0--0--0--0--0-----------|

e|---------------------------------------------------------------------------|
B|---------------------------------------------------------------------------|
G|--12-12-12-12-12-12-12-12-12-12---11-11-11-11-11---9--9--9--9--9-----------|
D|--x--x--x--x--x--x--x--x--x--x----x--x--x--x--x----x--x--x--x--x----2x-----|
A|--10-10-10-10-10-10-10-10-10-10---9--9--9--9--9----7--7--7--7--7-----------|
E|--0--0--0--0--0--0--0--0--0--0----0--0--0--0--0----0--0--0--0--0-----------|

e|-------------------------------------------------------------------------------------|
B|-------------------------------------------------------------------------------------|
G|--9--9--9--9--9----16-16-16-16-16---14-14-14-14-14---11-11-11-11-11---9--9--9--9--9--|
D|--x--x--x--x--x----x--x--x--x--x----x--x--x--x--x----x--x--x--x--x----x--x--x--x--x--|
A|--7--7--7--7--7----14-14-14-14-14---12-12-12-12-12----9--9--9--9--9---7--7--7--7--7--|
E|--0--0--0--0--0----0--0--0--0--0----0--0--0--0--0----0--0--0--0--0----0--0--0--0--0--|

e|----------------------------------------------------|
B|----------------------------------------------------|
G|--16-16-16-16-16---14-14-14-14-14---11-11-11-11-11--|
D|--x--x--x--x--x----x--x--x--x--x----x--x--x--x--x---|
A|--14-14-14-14-14---12-12-12-12-12---9--9--9--9--9---|
E|--0--0--0--0--0----0--0--0--0--0----0--0--0--0--0---|

e|---------------------------------------------------------------------------|
B|---------------------------------------------------------------------------|
G|--12-12-12-12-12-12-12-12-12-12---11-11-11-11-11---9--9--9--9--9-----------|
D|--x--x--x--x--x--x--x--x--x--x----x--x--x--x--x----x--x--x--x--x----2x-----|
A|--10-10-10-10-10-10-10-10-10-10---9--9--9--9--9----7--7--7--7--7-----------|
E|--0--0--0--0--0--0--0--0--0--0----0--0--0--0--0----0--0--0--0--0-----------|

e|----------------------------------------------------------------------------------------|
B|----------------------------------------------------------------------------------------|
G|--9--9--9--9--9----16-16-16-16-16---14-14-14-14-14---17-17-17-17-17---16-16-16-16-16----|
D|--x--x--x--x--x----x--x--x--x--x----x--x--x--x--x----x--x--x--x--x----x--x--x--x--x-----|
A|--7--7--7--7--7----14-14-14-14-14---12-12-12-12-12---15-15-15-15-15---14-14-14-14-14----|
E|--0--0--0--0--0----0--0--0--0--0----0--0--0--0--0----0--0--0--0--0----0--0--0--0--0-----|

e|-----------------------------------------------------|
B|-----------------------------------------------------|
G|--19-19-19-19-19---17-17-17-17-17---16-16-16-16-16---|
D|--x--x--x--x--x----x--x--x--x--x----x--x--x--x--x----|
A|--17-17-17-17-17---15-15-15-15-15---14-14-14-14-14---|
E|--0--0--0--0--0----0--0--0--0--0----0--0--0--0--0----|

e|---------------------------------------------------------------------------|
B|---------------------------------------------------------------------------|
G|--12-12-12-12-12-12-12-12-12-12---11-11-11-11-11---9--9--9--9--9-----------|
D|--x--x--x--x--x--x--x--x--x--x----x--x--x--x--x----x--x--x--x--x----2x-----|
A|--10-10-10-10-10-10-10-10-10-10---9--9--9--9--9----7--7--7--7--7-----------|
E|--0--0--0--0--0--0--0--0--0--0----0--0--0--0--0----0--0--0--0--0-----------|

e|-----------------------------------------------------------|
B|-----------------------------------------------------------|
G|--9--9--9--9--9----4--4--4--4--4----7--7--7--7--7----------|
D|--x--x--x--x--x----x--x--x--x--x----x--x--x--x--x----2x----|    
A|--7--7--7--7--7----2--2--2--2--2----5--5--5--5--5----------|
E|--0--0--0--0--0----0--0--0--0--0----0--0--0--0--0----------|
 
e|--------------------------------------------------------------------------------|
B|--------------------------------------------------------------------------------|
G|--12-12-12-12-12-12-12-12-12-12---11-11-11-11-11---9--9--9--9--9----------9~----|
D|--x--x--x--x--x--x--x--x--x--x----x--x--x--x--x----x--x--x--x--x----2x----x~----|
A|--10-10-10-10-10-10-10-10-10-10---9--9--9--9--9----7--7--7--7--7----------7~----|
E|--0--0--0--0--0--0--0--0--0--0----0--0--0--0--0----0--0--0--0--0----------0~----|

e|--------------------------------------------------------------------------------0~---|
B|--------------------------------------------------------------------------------0~---|
G|-----0------0------0------0--------------0------0--------4--4--4--4--4----------0~---|
D|---2--2---4--4---5--5---7--7----3x-----2--2---4--4-------5--5--5--5--5----4x----2~---|
A|--3-3--3-5-5--5-7-7--7-9-9--0---------3-3--3-5-5--5-7~---7--7--7--7--7----------3~---|
E|---------------------------------------------------------0--0--0--0--0---------------|
                                                                            D
e|--------------------------------------------------------------------0--0--0--0--0----------0----|
B|--------------------------------------------------------------------1--1--2--2--2----------3----|
G|--0--0--0--0--0----4--4--4--4--4----------4--4--4--4--0--0--0--0----0--0--0--0--0----2x----0----|
D|--7--7--7--7--7----5--5--5--5--5----3x----5--5--5--5--7--7--7--7----2--2--2--2--2----------4----|
A|--9--9--9--9--9----7--7--7--7--7----------7--7--7--7--9--9--9--9----3--3--3--3--3----------5----|
E|--0--0--0--0--0----0--0--0--0--0----------0--0--0--0--0--0--0--0--------------------------------|

    This is an end...
e|---------------------------------------------------------------------------|
B|---------------------------------------------------------------------------|
G|---------------------------------------------------------------------------|
D|---------------------------------------------------------------------------|
A|---------------------------------------------------------------------------|
E|---------------------------------------------------------------------------|





************************************
| 4x  repeat four times
| 3x  repeat three times
| 2x  repeat twice
| ~   let it ring
| x   Mute note

************************************
Добавлено: 28.04.2012
Другие материалы по этой песне:
  • Аккорды и текст

Страница создана 28.04.2012
http://primanota.ru/elysia/november-5th-chords.htm
Привет, Гость.
Предлагаем пройти революционный курс по гитаре.
Подарок от PrimaNota.Ru, забирай!