PrimaNota.ru - самый крупный в мире бесплатный архив песенных текстов, аккордов, табулатур и нот


Elysia - Masochist - таба, видео

Регистрация Запомнить меня
Войти через:  Facebook Google Twitter Vk Yandex Mail.ru

Elysia - Masochist - таба, видео

Печатать
Просмотров: 129
Elysia
"Masochist"
Masochist
2006

Tabbed by cooter

c#---------------------------------------------|
g#---------------------------------------------|
e----------------------------------------------|
b----------------------------------------------|
f#----------4p1-----5p2----5h8p5--21-----------|
b---5-4-2-4-----2-5----4-5---------------------|


c#---------------------------------------------|
g#---------------------------------------------|
e----------------------------------------------|
b----------------------------------------------|
f#----------4p1--------------------------------|
b---5-4-2-4-----2-4----------------------------|

c#---------------------------------------------|
g#---------------------------------------------|
e----------------------------------------------|
b----------------------------------------------|
f#----------4p1-----5p2----5h8p5--21-----------|
b---5-4-2-4-----2-5----4-5---------------------|


TWO ENDINGS
|
^
c#---------------------------------------------|
g#---------------------------------------------|
e----------------------------------------------|       8 each X16
b----------------------------------------------|
f#-----------------4---------------4----4------|
b---5-4-2----5-4-2----5-4-2--5-4-2-------------|

c#---------------------------------------------|
g#---------------------------------------------|
e----------------------------------------------|
b----------------------------------------------|
f#---1~-------------------1~-------------------|
b----2~-------------------2~-------------------|

c#--------------------------------------------------|
g#--------------------------------------------------|
e---------------------------------------------------|    X3
b------------------------------5555555--------------|
f#--------------------44444444---------44444--------|
b-----555554444433333-------------------------------|
      PM--------------------------------------------|
                                                             | X2

c#---------------------------------------------|
g#---------------------------------------------|
e----------------------------------------------|    X1
b----2h5-----2h5------2h5----------------------|
f#-------4-4-----4-4------4-3~-----------------|
b-------------------------4-3~-----------------|

c#---------------------------------------------|
g#---------------------------------------------|
e----------------------------------------------|
b----------------------------------------------|
f#---5-4-3-4--4h5---4h5---4h5------------------|
b----5-4-3-4------5-----5----------------------|
     PM----|

c#---------------------------------------------|
g#---------------------------------------------|
e----------------------------------------------|
b----------------------------------------------|
f#---5-4-3-4-5-4-3-----------------------------|
b----5-4-3-4-5-4-3-----------------------------|
     PM----|
Добавлено: 07.07.2012
Вам также может быть интересно:
Другие материалы по этой песне:
  • Аккорды и текст

Страница создана 07.07.2012
http://primanota.ru/elysia/masochist-chords.htm
Привет, Гость.
Предлагаем пройти революционный курс по гитаре.
Подарок от PrimaNota.Ru, забирай!