PrimaNota.ru - самый крупный в мире бесплатный архив песенных текстов, аккордов, табулатур и нот


Elysia - Killing Grounds - таба, видео

Регистрация Запомнить меня
Войти через:  Facebook Google Twitter Vk Yandex Mail.ru

Elysia - Killing Grounds - таба, видео

Печатать
Просмотров: 175
Уроки эстрадного вокала в Санкт-Петербурге
Its in drop D it might take you a while to figure out the timing but just listen to the 
I know its really close to 100% so be nice please I was up all night doing this


------------------------------------------------|
------------------------------------------------|
------------------------------------2-----0p2---|
-0--------3h5p3p0----------3h5p3----------------|
-0---3h5--------0-----3h5-----------------------|
-0--------------0-------------------------------|


---------------3^r3-1---------------------------|
---1h3p1---------------3-1-3-1----------1h3-----|
-------------------------------2-2-2-2----------|
------------------------------------------------|
------------------------------------------------|
------------------------------------------------|

--1---3---1-------------------------------------|
--1---3---1-------------------------------------|
---------------------5-5h7--7-------------------|
---------------------5-5h7--7-------------3h5---|
-------------------------------------3h5--------|
------------------------------------------------|


------------------------------------------------|
-------------------------------------------3-1-3|
--0h2----0----0-----------------------0h2-------|
-----------3---3----------------3h5-------------|
------------------5--3-----3h5------------------|
------------------------------------------------|

Breakdown

--1-3-1---3^r3-1-------------------------3^r3-1---------------------------|
------------------1-3-1-3-----------1-3----------3-1-3-1------------1-3---|
---------------------------2-2-2-2-------------------------2-2-2-2--------|
--------------------------------------------------------------------------|
--------------------------------------------------------------------------|
--------------------------------------------------------------------------|
Добавлено: 17.04.2012
Другие материалы по этой песне:
  • Аккорды и текст

Страница создана 17.04.2012
http://primanota.ru/elysia/killing-grounds-chords.htm
Привет, Гость.
Предлагаем пройти революционный курс по гитаре.
Подарок от PrimaNota.Ru, забирай!