PrimaNota.ru - самый крупный в мире бесплатный архив песенных текстов, аккордов, табулатур и нот


Elysia - Incinerate - таба, бас-таба, видео

Регистрация Запомнить меня
Войти через:  Facebook Google Twitter Vk Yandex Mail.ru

Elysia - Incinerate - таба, бас-таба, видео

Печатать
Просмотров: 195
-------------------------------------------------------------------------------
                             SONG NAME - Band Name
-------------------------------------------------------------------------------
Tabbed by: William 
Email: www.myspace.com/forswornmtl

Tuning: A or B ?

e|---------------------------------------------------------------------------|
B|---------------------------------------------------------------------------|
G|---------------------------------------------------------------------------|
D|---------------------------------------------------------------------------|
A|-------888777101010888----777888---555444777555---888777-------------------|
E|----000----------------888------555------------777------------------------
guitar 1 plays 4 times then this at that twostep sorta part ( look below)

e|---------------------------------------------------------------------------|
B|---------------------------------------------------------------------------|
G|---------------------------------------------------------------------------|
D|---------------------------------------------------------------------------|
A|-----------8---7---10---8----7-8----5---4--7-5---8-7-----------------------|
E|------0-0----0---0----0----8-----5-5--5--5----7----------------------------|
        x x  x x x x  x x x  x x x x x  x  x x x   x x

e|---------------------------------------------------------------------------|
B|---------------------------------------------------------------------------|
G|---------------------------------------------------------------------------|
D|--second time------000000000-----------------------------------------------|
A|--end with---------000000000-----------------------------------------------|
E|-------------------000000000-----------------------------------------------|
     BREAKDOWN  "I Will Stand Up For Those Who Suffer!"
e|---------------------------------------------------------------------------|
B|---------------------------------------------------------------------------|
G|---------------------------------------------------------------------------|
D|--------------8--------5---------------------------------------------------|
A|--------------8--------5---------------------------------------------------|
E|--------------8--------5---------------------------------------------------|
 listen for the pattern occasionally do this
e|---------------------------------------------------------------------------|
B|---------------------------------------------------------------------------|
G|------------------------------------------------------7--5--3--------------|
D|-----0------------7hp8--0------------0----------7hp8--8--7--5--------------|
A|-----0-------8h10-------0--8101010---0----8h10-----------------------------|
E|-----0------------------0------------0-------------------------------------|

Ill add more later

www.myspace.com/elysia


| /  slide up
| \  slide down
| h  hammer-on
| p  pull-off
| ~  vibrato
| +  harmonic
| x  Mute note
===============================================================================
Добавлено: 27.03.2012
Другие материалы по этой песне:

Страница создана 08.03.2012
http://primanota.ru/elysia/incinerate-chords.htm
Привет, Гость.
Предлагаем пройти революционный курс по гитаре.
Подарок от PrimaNota.Ru, забирай!