PrimaNota.ru - самый крупный в мире бесплатный архив песенных текстов, аккордов, табулатур и нот


Elysia - Incinarate - таба, видео

Регистрация Запомнить меня
Войти через:  Facebook Google Twitter Vk Yandex Mail.ru

Elysia - Incinarate - таба, видео

Печатать
Просмотров: 121
I know alot of you have ben wanting to learn this song so here it is

myspace adress. 

bigguy941@hotmail.com



~ Tremelo


Intro

------------------------------------------------|
------------------------------------------------|
------------------------------------------------|
------------------------------------------------|
---8~-7~-10~-8~----8~-7~----5~-4~-7~-5~---8~7~--|
-0--------------8~-------5--------------7~------|


------------------------------------------------|
------------------------------------------------|
------------------------------------------------|
------------------------------------------------|
----8~-7~-10~-8~----8~-7~--0-0-0-0-0-0-0-0------|
--0--------------8~--------0-0-0-0-0-0-0-0------|

First 2 step

------------------------------------------------|
------------------------------------------------|
------------------------------------------------|
------------------------------------------------|
----8---7--10-8----8-7------5---4---7-5-4---8-7-|
-0-0--0--0-------8------5-5---5---5-------7-----|


------------------------------------------------|
------------------------------------------------|
------------------------------------------------|
------------------------------------------------|
-----8---7---10-8---8-7--0-0-0-0-0-0-0-0--------|
-0-0---0---0------8------0-0-0-0-0-0-0-0--------|

Breakdown

------------------------------------------------|
------------------------------------------------|
------------------------------------------------|
------------------------------------------------|x2
--0-0-0--000-000-000--0-0-0--000-000--8-5-------|
--0-0-0--000-000-000--0-0-0--000-000--8-5-------|


------------------------------------------------|
------------------------------------------------|
------------------------------------------------|
------------------------------------------------|x2
-0-0-0--000-000-000--0-0-0-8--000--000-000-8-5--|
-0-0-0--000-000-000--0-0-0-8--000--000-000-8-5--|


2-step

------------------------------------------------|
------------------------------------------------|
------------------------------------------------|
-----------------------------------10-----------|
--0-8-10-12-10-8--10---8-10-10------------------|
--0-------------------10------------------------|

------------------------------------------------|
------------------------------------------------|
------------------------------------------------|
--------------------------------7-5-3-----------|
--8-8-8---8-10-12-10-8-0--8-7-5-----------------|
-------8----------------------------------------|

Breakdown

on fourth time do the end part of it

------------------------------------------------|
------------------------------------------------|
------------------------------------------------|
--------------------------x4--------------------|x2
--0-0---0--0-0---0--0-0--------1-0-4-3-1-0--3*--|
--0-0---0--0-0---0--0-0--------1-0-4-3-1-0------|

2-step

-------------------------------------------------------|
-------------------------------------------------------|
-------------------------------------------------------|
-------------------8-8-8------------------------(x5-6)-|
-0-4-3-1-0--0-0-0--6-6-6--3-666666-1-444444-4310-------|
-0-4-3-1-0--0-0-0---------3-666666-1-444444-4310-------|


------------------------------------------------|
------------------------------------------------|
------------------------------------------------|
------------------------------------------------|x2
-000-000-000-----000-000-000---4-3-0-1----------|
-000-000-000-----000-000-000---4-3-0-1----------|

-------------------------------------------------|
-------------------------------------------------|
-------------------------------------------------|
-------------------------------------------------|
-------------------------------------------------|
-0-0-0-0-0-0-0---0-0-0-0-0-0-0-0---0-0-0-0-0-0-0-|

-------------------------------------------------|
-------------------------------------------------|
-------------------------------------------------|
-------------------------------------------------|
-------------------------------------------------|
-0-0-0-0-0-0-0---0-0-0-0-0-0-0-0---0-0-0-0-0-0-0-|

------------------------------------------------|
------------------------------------------------|
------------------------------------------------|
-------8-----6----------------------------------|
-------6-----4----------------------------------|
---0-0---0-0------------------------------------|
Добавлено: 05.06.2012
Другие материалы по этой песне:
  • Аккорды и текст

Страница создана 05.06.2012
http://primanota.ru/elysia/incinarate-chords.htm
Привет, Гость.
Предлагаем пройти революционный курс по гитаре.
Подарок от PrimaNota.Ru, забирай!