PrimaNota.ru - самый крупный в мире бесплатный архив песенных текстов, аккордов, табулатур и нот


Elysia - Filthy - таба, видео

Регистрация Запомнить меня
Войти через:  Facebook Google Twitter Vk Yandex Mail.ru

Elysia - Filthy - таба, видео

Печатать
Просмотров: 212
This is The Intro to  Filthy By Elysia

its all i could really hera except the breakdowns

please if you know anymore pelase please send it to me
www.myspace.com/patrickxofxdeathxx

i would like to know the rest


here it is.


Drop B


* = pinch harmonic


-------------------------------------------------------------|
-------------------------------------------------------------|
-------------------------------------------------------------|
---6------------6-----------6-----------------6*-------------|
---5--0-0-0-0---5--0-0-0-0--5--0-0-0-0-----5*----------------|
---6--0-0-0-0---6--0-0-0-0--6--0-0-0-0--6*-------------------|

--------------------------------------------------------------|
--------------------------------------------------------------|
--------------------------------------------------------------|
---6-----------6-----------6------------3-------2------0------|
---5--0-0-0-0--5--0-0-0-0--5--0-0-0-0---2-(x5)--1(x5)--0------|
---6--0-0-0-0--6--0-0-0-0--6--0-0-0-0---3-------2------0------|
Добавлено: 12.03.2012
Другие материалы по этой песне:
  • Аккорды и текст

Страница создана 12.03.2012
http://primanota.ru/elysia/filthy-chords.htm
Привет, Гость.
Предлагаем пройти революционный курс по гитаре.
Подарок от PrimaNota.Ru, забирай!