PrimaNota.ru - самый крупный в мире бесплатный архив песенных текстов, аккордов, табулатур и нот


Ely Guerra - Júrame - таба, видео

Регистрация Запомнить меня
Войти через:  Facebook Google Twitter Vk Yandex Mail.ru

Ely Guerra - Júrame - таба, видео

Печатать
Просмотров: 109
Новый альбом группы 'Черный Кузнец' по культовому сериалу 'Сверхъестественное'!
Hola aqui les dejo este gran cover de Eli Guerra
Algo importante: en el verso no puse lo q hace la guitarra ya
que es igual al intro, solo relacionen el patrón del intro con
la armonía del verso, no hay pierde.
Los acordes son bastante básicos pero aclaro unos al final.

Cualquier duda o petición escribanme un mail.


Intro
    Gm             Gm(maj7)         Gm7           Gm6
e --------3--------5------5---------------5--6---------3---------
B ------3----3--------3-----3-----------3----3---------3---3-----
G º---3--------3--------3-----3-------3--------------3-------3---
D º-5--------------4--------------4-3-------------2--------------
A ---------------------------------------------------------------
E ---------------------------------------------------------------

    Cm7                             D             Eb        D
e --------10p8----------10p8--------------10------------11--------10-
B ------8-------------8----------8------7----7--------8---------7----
G ----8-------------8----------8------7-------------8---------7-----º
D ----------------8----------8------7-------------8---------7-------º
A -------------------------------------------------------------------
E --8-----------8----------------------------------------------------


Verso
      Gm              Gm(maj7)     Gm7    Gm6
Todos dicen que es mentira que te quiero
       Gm                         Cm7
Porque nunca me habían visto enamorada
                              D    Eb   D
Yo te juro que yo misma no comprendo
       Eb          D              Gm    Gm(maj7)
El por qué de tu mirar me ha fascinado

         Gm           Gm(maj7)       Gm7    Gm6
Cuando estoy cerca de ti ya estoy contenta
      Gm                     Cm7
Yo quisiera que de nadie te acordaras
                      D          Eb   D
Tengo celos hasta del pensamiento
       Eb               D            Gm
Que pueda recordarte a otra persona amada


G     Gmaj7                    G7
Júrame     que aunque pase mucho tiempo
         Gmaj7                      Am7     D7
pensarás en el momento en que yo te conocí
Am7   D7                     Am7
Mírame  pues no hay nada mas profundo
                 D7                      G
ni mas grande en este mundo que el cariño que te di
G     G7/F              C                  Cm
Bésame    con un beso enamorado como nadie me ha besado
         Bdim   Bbm7   Am7   D7
desde el día en que nací
G        A                     Bdim   C7
Quiéreme   quiéreme hasta la locura
                 Am7         D7
Y así sabrás la amargura que estoy sufriendo por ti


Intro
    Gm             Gm(maj7)         Gm7          Gm6
e --------3--------5------5---------------5--6---------3---------
B ------3----3--------3-----3-----------3----3---------3---3-----
G ----3--------3--------3-----3-------3--------------3-------3---
D --5--------------4--------------4-3-------------2--------------
A ---------------------------------------------------------------
E ---------------------------------------------------------------

    Cm7                              D             Eb        D
e --------10p8----------10p8---------------10------------11--------10-
B ------8-------------8-----------8------7----7--------8---------7----
G ----8-------------8-----------8------7-------------8---------7------
D ----------------8-----------8------7-------------8---------7--------
A --------------------------------------------------------------------
E --8-----------8-----------------------------------------------------


De aqui se repite desde el verso


Este es el arpegio del final:

    Gm             Gm(maj7)         Gm7          Gm6
e --------3--------5------5---------------5--6---------3---------
B ------3----3--------3-----3-----------3----3---------3---3-----
G ----3--------3--------3-----3-------3--------------3-------3---
D --5--------------4--------------4-3-------------2--------------
A ---------------------------------------------------------------
E ---------------------------------------------------------------

    Cm7                              D             Eb          Gm
e --------10p8----------10p8---------------10-------------11---3--*
B ------8-------------8-----------8------7----7---------8------3--*
G ----8-------------8-----------8------7--------7-----8--------3--*
D ----------------8-----------8------7--------------8----------5--*
A -------------------------------------------------------------5--*
E --8-----------8----------------------------------------------3--*


Aqui aclaro los acordes para q suene lo mas parecido al audio

    G    Gmaj7    G7     G7/F    Bdim
e --3--*-------*-------*-------*-------*
B --3--*---3---*---3---*---3---*---3---*
G --4--*---4---*---4---*---4---*---4---*
D --5--*---4---*---3---*---3---*---3---*
A --5--*---X---*---X---*---x---*---2---*
E --3--*---3---*---3---*---1---*-------*
Добавлено: 03.08.2014
Другие материалы по этой песне:
  • Аккорды и текст

Страница создана 03.08.2014
http://primanota.ru/ely-guerra/jurame-chords.htm
Привет, Гость.
Предлагаем пройти революционный курс по гитаре.
Подарок от PrimaNota.Ru, забирай!