PrimaNota.ru - самый крупный в мире бесплатный архив песенных текстов, аккордов, табулатур и нот


Elvis Presley - Shake A Hand - текст песни, бас-таба, видео

Регистрация Запомнить меня
Войти через:  Facebook Google Twitter Vk Yandex Mail.ru

Elvis Presley - Shake A Hand - текст песни, бас-таба, видео

Печатать
Просмотров: 185
SHAKE A HAND - Elvis Presley
----------------------------------------------------------------------------

From the album "Today" (1975)
Tabbed By : wibblewobble
e-mail: organisedchaos@talktalk.net

Tuning: Standard

This is just about it all the way through...

G|-----------------------------------------------------0-4-0-2-4------------|
D|-----------------------------4-7-4-5-7-----4-7-6-5/2-----------2-0--------|
A|----4-7-4-5-7-----4-7-6-4-5------------5---------------------------3------|
E|--5-----------5------------------------------------------------------5----|

G|--------------------------------------------------------------------------|
D|--------------------------------------------------------------------------|
A|--4-7-4-5-7---------------------------------------------------------------|
E|------------5-------------------------------------------------------------|

only The King could take a song with a lyric "shake a hand,  shake a hand,  shake a 
 shake a hand,  shake a hand,  shake a hand,  shake a hand if you can" and turn it into an 
 Great song,  written by Joe Morris
Добавлено: 15.07.2012
Другие материалы по этой песне:
  • Аккорды и текст

Страница создана 13.04.2012
http://primanota.ru/elvis-presley/shake-a-hand-chords.htm
Привет, Гость.
Предлагаем пройти революционный курс по гитаре.
Подарок от PrimaNota.Ru, забирай!