PrimaNota.ru - самый крупный в мире бесплатный архив песенных текстов, аккордов, табулатур и нот


Elvis Presley - See See Rider - текст песни, таба, видео

Регистрация Запомнить меня
Войти через:  Facebook Google Twitter Vk Yandex Mail.ru

Elvis Presley - See See Rider - текст песни, таба, видео

Печатать
Просмотров: 194
SEE SEE RIDER (Live)

As recorded by Elvis Presley
(From the 1974 Album ELVIS RECORDED LIVE ON STAGE IN MEMPHIS)

Words and Music by Ma Rainey & Lena Arant
Arranged by Elvis Presley

Transcribed by Slowhand


Gtr I (E A D G B E) - 'James Burton - Electric Guitar'
Gtr II (E A D G B E) - 'John Wilkinson - Electric Guitar'


 Intro
  Q=242(8=s8)
  N.C.
 4/4
  Gtr I
  Wx4
|--------|
|--------|
|--------|
|--------|
|--------|
|--------|


    A7
                                   PM
    Q  E E +E  Q.       E Q.     E E Q
||--------------------|-------------------||
||o----5-------7------|-5----------------o||
||-----5h6-(6)-7------|-5h6--------4------||
||-----5-------7------|-------------------||
||o-------------------|------------------o||
||--5-----------------|-5------------3----||
|
|   Gtr II
|   Q  E E  E  E  E E   Q    E E E E E E
||--0--0-0--0--0--0-0-|-0----0-0-0-0-0-0--||
||o-2--2-2--2--2--2-2-|-2----2-2-2-2-2-2-o||
||--0--0-0--0--0--0-0-|-0----0-0-0-0-0-0--||
||--2--2-2--2--2--2-2-|-2----2-2-2-2-2-2--||
||o-0--0-0--0--0--0-0-|-0----0-0-0-0-0-0-o||
||--------------------|-------------------||


                                 PM
  Q  E E +E  Q.       E Q.     E E Q
|-------------------|------------------||
|----5-------7------|-5----------------||
|----5h6-(6)-7------|-5h6--------4-----||
|----5-------7------|------------------||
|-------------------|------------------||
|-5-----------------|-5------------3---||
|
| Q  E E  E  E  E E   Q    E E E E E E
|-0--0-0--0--0--0-0-|-0----0-0-0-0-0-0-||
|-2--2-2--2--2--2-2-|-2----2-2-2-2-2-2-||
|-0--0-0--0--0--0-0-|-0----0-0-0-0-0-0-||
|-2--2-2--2--2--2-2-|-2----2-2-2-2-2-2-||
|-0--0-0--0--0--0-0-|-0----0-0-0-0-0-0-||
|-------------------|------------------||


   1st - 4th Verses
    $
    A7
                                   PM
    Q  E E +E  Q.       E Q.     E E Q
||--------------------|------------------|
||o----5-------7------|-5----------------|
||-----5h6-(6)-7------|-5h6--------4-----|
||-----5-------7------|------------------|
||o-------------------|------------------|
||--5-----------------|-5------------3---|
|
|   Q  E E  E  E  E E   Q    E E E E E E
||--0--0-0--0--0--0-0-|-0----0-0-0-0-0-0-|
||o-2--2-2--2--2--2-2-|-2----2-2-2-2-2-2-|
||--0--0-0--0--0--0-0-|-0----0-0-0-0-0-0-|
||--2--2-2--2--2--2-2-|-2----2-2-2-2-2-2-|
||o-0--0-0--0--0--0-0-|-0----0-0-0-0-0-0-|
||--------------------|------------------|


                                 PM
  Q  E E +E  Q.       E Q.     E E Q
|-------------------|------------------|
|----5-------7------|-5----------------|
|----5h6-(6)-7------|-5h6--------4-----|
|----5-------7------|------------------|
|-------------------|------------------|
|-5-----------------|-5------------3---|
|
| Q  E E  E  E  E E   Q    E E E E E E
|-0--0-0--0--0--0-0-|-0----0-0-0-0-0-0-|
|-2--2-2--2--2--2-2-|-2----2-2-2-2-2-2-|
|-0--0-0--0--0--0-0-|-0----0-0-0-0-0-0-|
|-2--2-2--2--2--2-2-|-2----2-2-2-2-2-2-|
|-0--0-0--0--0--0-0-|-0----0-0-0-0-0-0-|
|-------------------|------------------|


                                 PM                                     PM
  Q  E E +E  Q.       E Q.     E E Q     Q  E E +E  Q.       E Q.     E E Q
|-------------------|------------------|-------------------|-------------------|
|----5-------7------|-5----------------|----5-------7------|-5-----------------|
|----5h6-(6)-7------|-5h6--------4-----|----5h6-(6)-7------|-5h6--------4------|
|----5-------7------|------------------|----5-------7------|-------------------|
|-------------------|------------------|-------------------|-------------------|
|-5-----------------|-5------------3---|-5-----------------|-5------------3----|
|
| Q  E E  E  E  E E   Q    E E E E E E   Q  E E  E  E  E E   Q    E E E E E E
|-0--0-0--0--0--0-0-|-0----0-0-0-0-0-0-|-0--0-0--0--0--0-0-|-0----0-0-0-0-0-0--|
|-2--2-2--2--2--2-2-|-2----2-2-2-2-2-2-|-2--2-2--2--2--2-2-|-2----2-2-2-2-2-2--|
|-0--0-0--0--0--0-0-|-0----0-0-0-0-0-0-|-0--0-0--0--0--0-0-|-0----0-0-0-0-0-0--|
|-2--2-2--2--2--2-2-|-2----2-2-2-2-2-2-|-2--2-2--2--2--2-2-|-2----2-2-2-2-2-2--|
|-0--0-0--0--0--0-0-|-0----0-0-0-0-0-0-|-0--0-0--0--0--0-0-|-0----0-0-0-0-0-0--|
|-------------------|------------------|-------------------|-------------------|


  D7
  Q  Q   +E  Q.       W                Q  Q   +E  Q.       W
|----2---(2)-2------|-2--------------|----2---(2)-2------|-2---------------|
|----1---(1)-1------|-1--------------|----1---(1)-1------|-1---------------|
|----2---(2)-2------|-2--------------|----2---(2)-2------|-2---------------|
|-0-----------------|----------------|-0-----------------|-----------------|
|-------------------|----------------|-------------------|-----------------|
|-------------------|----------------|-------------------|-----------------|
|
| Q  E E  E  E  E E   Q  E E E E E E   Q  E E  E  E  E E   Q  E E E E E E
|-2--2-2--2--2--2-2-|-2--2-2-2-2-2-2-|-2--2-2--2--2--2-2-|-2--2-2-2-2-2-2--|
|-1--1-1--1--1--1-1-|-1--1-1-1-1-1-1-|-1--1-1--1--1--1-1-|-1--1-1-1-1-1-1--|
|-2--2-2--2--2--2-2-|-2--2-2-2-2-2-2-|-2--2-2--2--2--2-2-|-2--2-2-2-2-2-2--|
|-0--0-0--0--0--0-0-|-0--0-0-0-0-0-0-|-0--0-0--0--0--0-0-|-0--0-0-0-0-0-0--|
|-------------------|----------------|-------------------|-----------------|
|-------------------|----------------|-------------------|-----------------|


  A7
                                 PM                                     PM
  Q  E E +E  Q.       E Q.     E E Q     Q  E E +E  Q.       E Q.     E E Q
|-------------------|------------------|-------------------|-------------------|
|----5-------7------|-5----------------|----5-------7------|-5-----------------|
|----5h6-(6)-7------|-5h6--------4-----|----5h6-(6)-7------|-5h6--------4------|
|----5-------7------|------------------|----5-------7------|-------------------|
|-------------------|------------------|-------------------|-------------------|
|-5-----------------|-5------------3---|-5-----------------|-5------------3----|
|
| Q  E E  E  E  E E   Q    E E E E E E   Q  E E  E  E  E E   Q    E E E E E E
|-0--0-0--0--0--0-0-|-0----0-0-0-0-0-0-|-0--0-0--0--0--0-0-|-0----0-0-0-0-0-0--|
|-2--2-2--2--2--2-2-|-2----2-2-2-2-2-2-|-2--2-2--2--2--2-2-|-2----2-2-2-2-2-2--|
|-0--0-0--0--0--0-0-|-0----0-0-0-0-0-0-|-0--0-0--0--0--0-0-|-0----0-0-0-0-0-0--|
|-2--2-2--2--2--2-2-|-2----2-2-2-2-2-2-|-2--2-2--2--2--2-2-|-2----2-2-2-2-2-2--|
|-0--0-0--0--0--0-0-|-0----0-0-0-0-0-0-|-0--0-0--0--0--0-0-|-0----0-0-0-0-0-0--|
|-------------------|------------------|-------------------|-------------------|


  E7                                    D7
  Q  Q   +E  E Q     H      +E  E Q     W          +W
|------------------|------------------|----------|--------|
|----3---(3)-3-----|-3------(3)-------|-3--------|-(3)----|
|------------------|-1------(1)-1-----|-5--------|-(5)----|
|--------------2---|--------------2---|-4--------|-(4)----|
|------------------|------------------|----------|--------|
|-0----------------|------------------|----------|--------|
|
| Q  E E  E  E E E   Q  E E  E  E E E   W          +W
|-0--0-0--0--0-0-0-|-0--0-0--0--0-0-0-|-2--------|-(2)----|
|-3--3-3--3--3-3-3-|-3--3-3--3--3-3-3-|-1--------|-(1)----|
|-1--1-1--1--1-1-1-|-1--1-1--1--1-1-1-|-2--------|-(2)----|
|-2--2-2--2--2-2-2-|-2--2-2--2--2-2-2-|-0--------|-(0)----|
|-2--2-2--2--2-2-2-|-2--2-2--2--2-2-2-|----------|--------|
|-0--0-0--0--0-0-0-|-0--0-0--0--0-0-0-|----------|--------|


                                 PM
  Q  E E +E  Q.       E Q.     E E Q
|-------------------|------------------|
|----5-------7------|-5----------------|
|----5h6-(6)-7------|-5h6--------4-----|
|----5-------7------|------------------|
|-------------------|------------------|
|-5-----------------|-5------------3---|
|
| Q  E E  E  E  E E   Q    E E E E E E
|-0--0-0--0--0--0-0-|-0----0-0-0-0-0-0-|
|-2--2-2--2--2--2-2-|-2----2-2-2-2-2-2-|
|-0--0-0--0--0--0-0-|-0----0-0-0-0-0-0-|
|-2--2-2--2--2--2-2-|-2----2-2-2-2-2-2-|
|-0--0-0--0--0--0-0-|-0----0-0-0-0-0-0-|
|-------------------|------------------|


                     1.,D.S.
           To Coda
                                 PM
  Q  E E +E  Q.       E Q.     E E Q
|-------------------|--------------------||
|----5-------7------|-5-----------------o||
|----5h6-(6)-7------|-5h6--------4-------||
|----5-------7------|--------------------||
|-------------------|-------------------o||
|-5-----------------|-5------------3-----||
|
| Q  E E  E  E  E E   Q    E E E E E E
|-0--0-0--0--0--0-0-|-0----0-0-0-0-0-0---||
|-2--2-2--2--2--2-2-|-2----2-2-2-2-2-2--o||
|-0--0-0--0--0--0-0-|-0----0-0-0-0-0-0---||
|-2--2-2--2--2--2-2-|-2----2-2-2-2-2-2---||
|-0--0-0--0--0--0-0-|-0----0-0-0-0-0-0--o||
|-------------------|--------------------||


                     Guitar Solo
  2.
                      A7
  E Q.     E E E E    Q    Q    +E   Q    E
|--------------5---||-5---------------------|
|-5--------5h7---7-||----/10---(10)-10---10-|
|-5h6--------------||-----------------------|
|------------------||-----------------------|
|------------------||-----------------------|
|-5----------------||-----------------------|
|
| Q    E E E E E E    Q    E E   E   E E  E
|-0----0-0-0-0-0-0-||-0----0-0---0---0-0--0-|
|-2----2-2-2-2-2-2-||-2----2-2---2---2-2--2-|
|-0----0-0-0-0-0-0-||-0----0-0---0---0-0--0-|
|-2----2-2-2-2-2-2-||-2----2-2---2---2-2--2-|
|-0----0-0-0-0-0-0-||-0----0-0---0---0-0--0-|
|------------------||-----------------------|


   Q   Q   E  E E  E   E E  Q    E E E  E
|----------8-10p8----|-8h9---------0-------|
|-10--10----------10-|-----10---10-----10--|
|--------------------|---------------9-----|
|--------------------|---------------------|
|--------------------|---------------------|
|--------------------|---------------------|
|
|  Q   E E E  E E  E   Q    E E  E E E  E
|--0---0-0-0--0-0--0-|-0----0-0--0-0-0--0--|
|--2---2-2-2--2-2--2-|-2----2-2--2-2-2--2--|
|--0---0-0-0--0-0--0-|-0----0-0--0-0-0--0--|
|--2---2-2-2--2-2--2-|-2----2-2--2-2-2--2--|
|--0---0-0-0--0-0--0-|-0----0-0--0-0-0--0--|
|--------------------|---------------------|


  E E  E E E  E Q      E    +E  E E E E E E
|-0------0-----------|-----------------------|
|-----10-----10-8\---|-----------------------|
|---9------9---------|-4b6==(4)-4-4-4-4-4-4r-|
|--------------------|-----------------------|
|--------------------|-----------------------|
|--------------------|-----------------------|
|
| Q    E E E  E E  E   Q        E E E E E E
|-0----0-0-0--0-0--0-|-0--------0-0-0-0-0-0--|
|-2----2-2-2--2-2--2-|-2--------2-2-2-2-2-2--|
|-0----0-0-0--0-0--0-|-0--------0-0-0-0-0-0--|
|-2----2-2-2--2-2--2-|-2--------2-2-2-2-2-2--|
|-0----0-0-0--0-0--0-|-0--------0-0-0-0-0-0--|
|--------------------|-----------------------|


  E    +E  E E E E E E   +Q   Q   E E E E
|----------------------|------0------------|
|----------------------|-------------------|
|-6b9==(6)-6-6-6-6-6-6-|-(6)------6-6-6-6--|
|----------------------|-------------------|
|----------------------|-------------------|
|----------------------|-------------------|
|
| Q        E E E E E E    Q   E E E E E E
|-0--------0-0-0-0-0-0-|--0---0-0-0-0-0-0--|
|-2--------2-2-2-2-2-2-|--2---2-2-2-2-2-2--|
|-0--------0-0-0-0-0-0-|--0---0-0-0-0-0-0--|
|-2--------2-2-2-2-2-2-|--2---2-2-2-2-2-2--|
|-0--------0-0-0-0-0-0-|--0---0-0-0-0-0-0--|
|----------------------|-------------------|


                      D7
  E E E E E +E  E E   E    E E E E E E E   E E E E  E E E E   E E E E E E E E
|-------------------|--------------------|------------------|------------------|
|-------------------|--------------------|------------------|------------------|
|-6-6-6-6-6r(6)-5-6-|-7b9==7-7-7-7-7-7-7-|-7-7-7-7r-7-7-7-7-|-7-7-5-6----------|
|-------------------|--------------------|------------------|---------7-7-5-5--|
|-------------------|--------------------|------------------|------------------|
|-------------------|--------------------|------------------|------------------|
|
| Q   E E E  E  E E   Q      E E E E E E   Q   E E  E E E E   Q   E E E E E E
|-0---0-0-0--0--0-0-|-2------2-2-2-2-2-2-|-2---2-2--2-2-2-2-|-2---2-2-2-2-2-2--|
|-2---2-2-2--2--2-2-|-1------1-1-1-1-1-1-|-1---1-1--1-1-1-1-|-1---1-1-1-1-1-1--|
|-0---0-0-0--0--0-0-|-2------2-2-2-2-2-2-|-2---2-2--2-2-2-2-|-2---2-2-2-2-2-2--|
|-2---2-2-2--2--2-2-|-0------0-0-0-0-0-0-|-0---0-0--0-0-0-0-|-0---0-0-0-0-0-0--|
|-0---0-0-0--0--0-0-|--------------------|------------------|------------------|
|-------------------|--------------------|------------------|------------------|


                    A7
  E E E E E E E E   Q  E E +E  Q   E   Q.    E E E E    +E    H      E Q.
|-----------------|------------------|----------------------|------------------|
|-----------------|------------------|----------------------|------------------|
|-----------------|------------------|-----------5-5pb7r(5)-|------------------|
|-----------------|------------5-----|-5-----5h7------------|-7------7-7-------|
|-5-5-3-3-5-5-3-4-|-0--5s7-(7)-----7-|----------------------|------------------|
|-----------------|------------------|----------------------|------------------|
|
| Q   E E E E E E   Q  E E  E  E E E   Q   E E E E E     E    Q  E E E E  E E
|-2---2-2-2-2-2-2-|-0--0-0--0--0-0-0-|-0---0-0-0-0-0-----0--|-0--0-0-0-0--0-0--|
|-1---1-1-1-1-1-1-|-2--2-2--2--2-2-2-|-2---2-2-2-2-2-----2--|-2--2-2-2-2--2-2--|
|-2---2-2-2-2-2-2-|-0--0-0--0--0-0-0-|-0---0-0-0-0-0-----0--|-0--0-0-0-0--0-0--|
|-0---0-0-0-0-0-0-|-2--2-2--2--2-2-2-|-2---2-2-2-2-2-----2--|-2--2-2-2-2--2-2--|
|-----------------|-0--0-0--0--0-0-0-|-0---0-0-0-0-0-----0--|-0--0-0-0-0--0-0--|
|-----------------|------------------|----------------------|------------------|


                   E7
  H      Q   Q     H      Q.     E
|----------------|-----------------|
|----------------|-----------------|
|------------6---|-7------7------6-|
|-7------7-------|-----------------|
|----------------|-----------------|
|----------------|-----------------|
|
| Q  E E E E E E   Q  E E E  E E E
|-0--0-0-0-0-0-0-|-0--0-0-0--0-0-0-|
|-2--2-2-2-2-2-2-|-3--3-3-3--3-3-3-|
|-0--0-0-0-0-0-0-|-1--1-1-1--1-1-1-|
|-2--2-2-2-2-2-2-|-2--2-2-2--2-2-2-|
|-0--0-0-0-0-0-0-|-2--2-2-2--2-2-2-|
|----------------|-0--0-0-0--0-0-0-|


  E E    +Q    H         E +E  E E E E E   +E
|----------------------|------------------------|
|----------------------|------------------------|
|-7-7b9==(7)---7-------|-7r(7)-x-x-x-x-5b6-(5)--|
|----------------------|------------------------|
|----------------------|------------------------|
|----------------------|------------------------|
|
| Q       E  E E E E E   W
|-0-------0--0-0-0-0-0-|-2----------------------|
|-3-------3--3-3-3-3-3-|-1----------------------|
|-1-------1--1-1-1-1-1-|-2----------------------|
|-2-------2--2-2-2-2-2-|-0----------------------|
|-2-------2--2-2-2-2-2-|------------------------|
|-0-------0--0-0-0-0-0-|------------------------|


                      A7
   PM-------------|
   E  E E E E E E E    Q  H.             H      E    +E  Q
|-------------------|------------------|---------------------|
|-------------------|------------------|---------------------|
|-------------------|-----2------------|--------4pb6r(4)-2---|
|--7--7-7-7---------|------------------|---------------------|
|-----------7-6-5-5-|-/4---------------|-0-------------------|
|-------------------|------------------|---------------------|
|
| +W                   Q  E  E E E E E   Q  E E E     E  E E
|-(2)---------------|--0--0--0-0-0-0-0-|-0--0-0-0-----0--0-0-|
|-(1)---------------|--2--2--2-2-2-2-2-|-2--2-2-2-----2--2-2-|
|-(2)---------------|--0--0--0-0-0-0-0-|-0--0-0-0-----0--0-0-|
|-(0)---------------|--2--2--2-2-2-2-2-|-2--2-2-2-----2--2-2-|
|-------------------|--0--0--0-0-0-0-0-|-0--0-0-0-----0--0-0-|
|-------------------|------------------|---------------------|


                         D.S. al Coda
  Q  Q   +E  Q.       W
|-------------------|------------------||
|-------------------|------------------||
|-------------------|------------------||
|----2---(2)-4------|-2----------------||
|-0-----------------|------------------||
|-------------------|------------------||
|
| Q  E E  E  E  E E   Q  E E E E E E
|-0--0-0--0--0--0-0-|-0--0-0-0-0-0-0---||
|-2--2-2--2--2--2-2-|-2--2-2-2-2-2-2---||
|-0--0-0--0--0--0-0-|-0--0-0-0-0-0-0---||
|-2--2-2--2--2--2-2-|-2--2-2-2-2-2-2---||
|-0--0-0--0--0--0-0-|-0--0-0-0-0-0-0---||
|-------------------|------------------||


              Outro
  &
  A7
  W            Q  Q  +E  E Q    W          Q  Q  +E  E Q
|----------||-----------------|----------|-----------------|
|-5--------||o----------------|----------|-----------------|
|-6--------||-----6--(6)-6h7--|-6--------|----6--(6)-6h7---|
|-5--------||-----5--(5)-5h7--|-5--------|----5--(5)-5h7---|
|----------||o----------------|----------|-----------------|
|----------||--5--------------|----------|-5---------------|
|
| W            W                W          W
|-0--------||-----------------|----------|-----------------|
|-2--------||o----------------|----------|-----------------|
|-0--------||-----------------|----------|-----------------|
|-2--------||-----------------|----------|-----------------|
|-0--------||o----------------|----------|-----------------|
|----------||-----------------|----------|-----------------|


               A
               Gtrs I, II
               TP          TP
  W         6x W          +H.      Q
|-----------||-0--------|-(0)---------*|
|----------o||-2--------|-(2)---------*|
|-6---------||-2--------|-(2)---------*|
|-5---------||-2--------|-(2)---------*|
|----------o||-0--------|-(0)---------*|
|-----------||----------|-------------*|


Duration Legend
---------------
W - whole; H - half; Q - quarter; E - 8th; S - 16th; T - 32nd; X - 64th; a - acciaccatura
+ - note tied to previous; . - note dotted; .. - note double dotted
Uncapitalized letters represent notes that are staccato (1/2 duration)
Irregular groupings are notated above the duration line
Duration letters will always appear directly above the note/fret number it represents the
duration for.  Duration letters with no fret number below them represent rests.  Multi-
bar rests are notated in the form Wxn, where n is the number of bars to rest for.  Low
melody durations appear below the staff

Tablature Legend
----------------
 h   - hammer-on
 p   - pull-off
 b   - bend
 pb  - pre-bend
 r   - bend release (if no number after the r, then release immediately)
 /\  - slide into or out of (from/to "nowhere")
 s   - legato slide
 S   - shift slide
  - natural harmonic
[n]  - artificial harmonic
n(n) - tapped harmonic
 ~   - vibrato
 tr  - trill
 T   - tap
 TP  - trem. picking
 PM  - palm muting
\n/  - tremolo bar dip; n = amount to dip
 \n  - tremolo bar down
 n/  - tremolo bar up
/n\  - tremolo bar inverted dip
 =   - hold bend; also acts as connecting device for hammers/pulls
 <>  - volume swell (louder/softer)
 x   - on rhythm slash represents muted slash
 o   - on rhythm slash represents single note slash

Misc Legend
-----------
 |  - bar
||  - double bar
||o - repeat start
o|| - repeat end
*|  - double bar (ending)
 :  - bar (freetime)
 $  - Segno
 &  - Coda
Tempo markers -  = BPM(8/16=s8/s16), where s8 = swing 8ths, s16 = swing 16ths
Добавлено: 16.05.2015
Другие материалы по этой песне:

Страница создана 16.05.2012
http://primanota.ru/elvis-presley/see-see-rider-chords.htm
Привет, Гость.
Предлагаем пройти революционный курс по гитаре.
Подарок от PrimaNota.Ru, забирай!