PrimaNota.ru - самый крупный в мире бесплатный архив песенных текстов, аккордов, табулатур и нот


Elvis Presley - In My Way - аккорды и текст, видео

Регистрация Запомнить меня
Войти через:  Facebook Google Twitter Vk Yandex Mail.ru

Elvis Presley - In My Way - аккорды и текст, видео

Печатать
Просмотров: 641
Уроки эстрадного вокала в Санкт-Петербурге
In My Way
Elvis Presley
---------------------------------------------------------------------------
                In My Way - Elvis Presley
---------------------------------------------------------------------------
Tabbed by: maguri
Tuning: Standard

Elvis Presley
In My Way (1960)
(F. Wise/B. Weisman)

From the movie "Wild in the Country" 
Now on "The Original Elvis Presley Collection 11"

---------------------------------------------------------------------------
CHORDS
         e-B-G-D-A-E
G9/F     3-0-2-3-x-x
G7       3-0-0-3-2-3
---------------------------------------------------------------------------

Capo 3rd fret

INTRO
  C                F                G9/F
e|----------------|------------1---|------------3---|----------------|
B|------------1---|--------1-------|--------0-------|----------------|
G|--------0-------|----2-----------|----2-----------|----------------|
D|----2-----------|3---------------|3---------------|----------------|
A|3---------------|----------------|----------------|----------------|
E|----------------|----------------|----------------|----------------|

---------------------------------------------------------------------------
Capo 3rd fret

INTRO
| C | F | G9/F |

C         Em        Am
I may not be here tomorrow
        F       Em         Dm    G7
But I'm close beside you today
   F           G               C    Em   Am
So lie to me a little, say you love me a lot
            F       G7        C    G9/F
And I'll be true to you in my way

C          Em        Am
Love never goes on forever
   F                 Em           Dm    G7
At least that's what wise men all say
   F              G          C      Em      Am
So smile when you kiss me, tomorrow you may cry
            F       G7        C  
But I'll be true to you in my way
            F       G7        C 
Yes I'll be true to you in my way
Добавлено: 04.09.2013
Другие материалы по этой песне:
  • Аккорды и текст

Страница создана 04.06.2012
http://primanota.ru/elvis-presley/in-my-way-chords.htm
Привет, Гость.
Предлагаем пройти революционный курс по гитаре.
Подарок от PrimaNota.Ru, забирай!