PrimaNota.ru - самый крупный в мире бесплатный архив песенных текстов, аккордов, табулатур и нот


Elvis Presley - Any Day Now - аккорды и текст, бас-таба, видео

Регистрация Запомнить меня
Войти через:  Facebook Google Twitter Vk Yandex Mail.ru

Elvis Presley - Any Day Now - аккорды и текст, бас-таба, видео

Печатать
Просмотров: 180
Авторы музыки: Burt Bacharach
Авторы текста: Bob Hilliard
Any Day Now
Elvis Presley
---------------------------------------------------------------------------
          Any Day Now - Elvis Presley
---------------------------------------------------------------------------
Tabbed by: maguri
Tuning: Standard

Elvis Presley 
Any Day Now (1969)
(Burt Bacharach/Bob Hilliard)

From: "From Elvis in Memphis"

---------------------------------------------------------------------------

INTRO
  D      Dsus2     D       D7       D6      D       Dsus4    D  Dsus2
  1 + 2 + 3 + 4 +  1 + 2 + 3 + 4 +  1 + 2 + 3 + 4 +  1 + 2 + 3 + 4 +
e|2-------0-------|----------------|----------------|----------------|
B|3-------3-------|3-------1-------|3-------3-------|3-------3---3---|
G|2-------2-------|2-------2-------|4-------2-------|0-------2---2---|
D|0-------0-------|0-------0-------|0-------0-------|0-------4---2---|
A|----------------|----------------|----------------|----------------|
E|----------------|----------------|----------------|----------------|

---------------------------------------------------------------------------

INTRO
| D Dsus2 | D D7 | D6 D | Dsus4   D Dsus2 |

| G | % | Em | % |


VERSE
G
  Any day now  
Bm
  I will hear you say
    C
Goodbye my love
C                 C#dim7
You'll be on your way
        G/D            Gaug/D#
Then my wild beautiful bird
              Em      Cm 
You will have flown
    G/D
Any day now (Any day now)
             C/D
I'll be all alone (I'll be all alone)
C/D             G
Oh, oh, oh, oh, oh


VERSE
G
  Any day now
Bm
  When your restless eyes
             C
Meet someone new
C            C#dim7
To my sad surprise
         G/D              Gaug/D#
Then the blue shadow will fall 
         Em      Cm 
All over town
    G/D
Any day now (Any day now)
             C/D
Love will let me down (Love will let me down)
C/D             G
Oh, oh, oh, oh, oh


INTERLUDE
| G | % | Em | % | 


MIDDLE 8
Em
 I know I shouldn't want to keep you
       Bm            C     D
If you don't want to stay, yeah
G                      Bm
  Until you've gone forever
        Em      Bm          Em
I'll be holding on for dear life
D                  C
  Holding you this way
C/D              G
  Begging you to stay


VERSE
G
  Any day now 
Bm
  When the clock strikes go
               C
You'll call it off
C                  C#dim7
Then my tears will flow
         G/D              Gaug/D#
Then the blue shadow will fall 
         Em      Cm 
All over town
    G/D
Any day now (Any day now)
                 C    C/D
Love will let me down  (Love will let me down)
                  G
And you won't be around 


CODA
| G | % | Em | % | 
    (Any day now) Any day now

| G | % | Em | % | 
Don't fly away, my beautiful bird

| G | % | Em | % | 
Don't fly away, my beautiful bird

(repeat and fade)
Добавлено: 07.09.2015
Другие материалы по этой песне:
  • Аккорды и текст

Страница создана 25.04.2012
http://primanota.ru/elvis-presley/any-day-now-chords.htm
Привет, Гость.
Предлагаем пройти революционный курс по гитаре.
Подарок от PrimaNota.Ru, забирай!