PrimaNota.ru - самый крупный в мире бесплатный архив песенных текстов, аккордов, табулатур и нот


Elvis Presley - Aint Nuthin Bu A Hound Dawg - таба, видео

Регистрация Запомнить меня
Войти через:  Facebook Google Twitter Vk Yandex Mail.ru

Elvis Presley - Aint Nuthin Bu A Hound Dawg - таба, видео

Печатать
Просмотров: 146
so, this is the ultimate song! this is me and myself only who have tabbed it! i am 
secretely jimi hendrix, but dont tell anyone, so this cant be a wrong tab! i know its 
hard but... so?! just practice!

intro
e|----------17--------------------2----------------14h22--
B|------3-----------s7h18----------------------21---------
G|5------------3b20------------5--------3-5---------------
D|--104---------------------21-----------------------2-2-1
A|--------h2--------------0---------11-------------------1
E|------0------------------------------------4-----------1

VERSE - Am - C#1/2 - B5add7maj38 - Cdim3 - x204

you aint nothin but a hound dog, drivin all lone
when yore on the street, you are a porn teacher!
the cop is a crime, you know its true, they take you to jail and maybe kill you!!

they said you where a sad gas, but thas was mast a lie
they said you where a sad gas, but thas was mast a lie
you never go to heaven, and you aint no fast dinner

chourus - G - G - G - G - G - G - G - G - G - B#84

HERE COMES THE HARD PART!!!!!!!!!!!!

e|---------------------------9-9-9-9-9-9-9-9-9-9-9-9-9-9-9-
B|----XXXXXXXXXXXXXXXXXXXXXXXXXXXXXXXXXXXXXXXXXXXXXXXXXXXX-
G|----XXXXXXXXXXXXXXXXXXXXXXXXXXXXXXXXXXXXXXXXXXXXXXXXXXXX-
D|----XXXXXXXXXXXXXXXXXXXXXXXXXXXXXXXXXXXXXXXXXXXXXXXXXXXX-
A|----XXXXXXXXXXXXXXXXXXXXXXXXXXXXXXXXXXXXXXXXXX21XXXXXXXX-
E|---------------------------22-22-22-22-22-22-22-22-22-22-

and this is the solo; its the best solo i know!

e|-1------------4h19------------1-2-3-4-5-6-7-----11
B|----0h9------------------------1-2-3-4-5-6-7----10
G|------9------------0-3-3-3-3--------------------10
D|-----14------------0-4-4-4-4--------------------10
A|-------------------0-5-5-5-5--------------------11
E|--14-----1s23--------------------------0-0-0-0--19
                                #######PM#######

slow part

AHHH... AHHH.... AHHH....
e|----2------21-------1--------------------11-11---
B|---------------------------------------6---12-1-2
G|------4-------4-------0H17-----------------------
D|----------------17-------------0-0-0-3-----------
A|--------15-----------------4S5-------------------
E|---------------5-------------------------------22

AND THATS IT!! YOU CAN IT NOW! GO THROW A CONCERT AND PLAY THIS 14 TIMES IN A ROUG!!
YEAH!! YOURE THE KING!! MEN IS KING!! LICK BOY-BUTT!! MEN & GA... OOPS.. GOT A LITTLE
CARRIED AWAY THERE...

SO ANYWAY, THE SONG IS COOL AND THE TAB IS RIGHT SO NO COMPLAINS!! THEN ILL HAUNT YOU 
DOWN AND KILL YOU SLOWLY!!

kalleballe@c2i.net
Добавлено: 28.07.2012
Другие материалы по этой песне:
  • Аккорды и текст

Страница создана 28.07.2012
http://primanota.ru/elvis-presley/aint-nuthin-bu-a-hound-dawg-chords.htm
Привет, Гость.
Предлагаем пройти революционный курс по гитаре.
Подарок от PrimaNota.Ru, забирай!