PrimaNota.ru - самый крупный в мире бесплатный архив песенных текстов, аккордов, табулатур и нот


Elvis Jackson - Get Up - таба, видео

Регистрация Запомнить меня
Войти через:  Facebook Google Twitter Vk Yandex Mail.ru

Elvis Jackson - Get Up - таба, видео

Печатать
Просмотров: 122
INTRO:
z wah-wah efektom:
e|-----------------------------------------------------------------------------|
B|-----------------------------------------------------------------------------|
G|------------------------------------7----------------------------------------|
D|---7-555-4-4-0-4-4/5----7-555-4-4-4-------7-555-4-4-0-4-4/5----7-555-0--12---|
A|-0--------------------0-----------------0--------------------0---------------|
E|-----------------------------------------------------------------------------|
                                                                          ¤

   A5          B5  C5 D5             G5    E5                C5    A5       E5 C5
e|---------------------------------------------------------------------------------|
B|---------------------------------------------------------------------------------|
G|---------------------------------------------------------------------------------|
D|-7-7-7-7-7-7-9-9-10/12-12-12-12-12-12-12-14-14-14-14-14-14-10-10-7--------9--10--|
A|-7-7-7-7-7-7-9-9-10/12-12-12-12-12-10-10-14-14-14-14-14-14-10-10-7--------7--10--|
E|-5-5-5-5-5-5-7-7-8-/10-10-10-10-10-10-10-12-12-12-12-12-12-8--8--5--------7--8---|

   A5          B5  C5 D5             G5    E5                C5    A5       E5
e|--------------------------------------------------------------------------------|
B|--------------------------------------------------------------------------------|
G|--------------------------------------------------------------------------------|
D|-7-7-7-7-7-7-9-9-10/12-12-12-12-12-12-12-14-14-14-14-14-14-10-10-7--------9-----|
A|-7-7-7-7-7-7-9-9-10/12-12-12-12-12-10-10-14-14-14-14-14-14-10-10-7--------7-----|
E|-5-5-5-5-5-5-7-7-8-/10-10-10-10-10-10-10-12-12-12-12-12-12-8--8--5--------7-----|

Jump, jump...
   A5          B5  C5 D5             G5    E5                C5    A5       E5 C5
e|---------------------------------------------------------------------------------|
B|---------------------------------------------------------------------------------|
G|---------------------------------------------------------------------------------|
D|-7-7-7-7-7-7-9-9-10/12-12-12-12-12-12-12-14-14-14-14-14-14-10-10-7--------9--10--|
A|-7-7-7-7-7-7-9-9-10/12-12-12-12-12-10-10-14-14-14-14-14-14-10-10-7--------7--10--|
E|-5-5-5-5-5-5-7-7-8-/10-10-10-10-10-10-10-12-12-12-12-12-12-8--8--5--------7--8---|

   A5          B5  C5 D5             G5    E5                C5    A5
e|--------------------------------------------------------------------------|
B|--------------------------------------------------------------------------|
G|--------------------------------------------------------------------------|
D|-7-7-7-7-7-7-9-9-10/12-12-12-12-12-12-12-14-14-14-14-14-14-10-10-7--------|
A|-7-7-7-7-7-7-9-9-10/12-12-12-12-12-10-10-14-14-14-14-14-14-10-10-7--------|
E|-5-5-5-5-5-5-7-7-8-/10-10-10-10-10-10-10-12-12-12-12-12-12-8--8--5--------|


VERZ:

Everyday suffering and endless pain, strange feelings are driving you insane
Living by the never ending rules we play, is that what we got the price we wanna pay
Kicking and kicking in the name of the law, a knife in my back I was never really sure
I got to get rid of dirty lies, I got to be strong and I got to realize

e|-5--5--5---5---|
B|-5--5--5---5---|
G|-6--6--6---6---|  -- 8x
D|-----------7---|
A|-----------7---|
E|---------------|
             w

z wah-wah efektom:
e|------------------------------------------------------------------------5----|
B|------------------------------------------------------------------------5----|
G|------------------------------------7-----------------------------------6----|
D|---7-555-4-4-0-4-4/5----7-555-4-4-4-------7-555-4-4-0-4-4/5----7-555-0--7----|
A|-0--------------------0-----------------0--------------------0----------7----|
E|-----------------------------------------------------------------------------|

Once, twice, big surprise enough is enough let me see your bloody eyes
Get out of the car 'cause you went too far, put your hands on the roof
and you gonna be all right. You've got no rights and you know what we
need, we got to be promoted and we got to find your weed. You threat me
all the time as I commit the crime but I'm just a jerk and
I really hate to be your kind!

e|-5--5--5---5---|
B|-5--5--5---5---|
G|-6--6--6---6---|  -- 8x
D|-----------7---|
A|-----------7---|
E|---------------|
             w

   A  D    E  G    A  G    E  G
e|-5--5-------3----5--3-------3----|
B|-5--7----9--3----5--3----9--3----|
G|-6--7----9--4----6--4----9--4----|
D|-7--7----9--5----7--5----9--5----|
A|-7--5----7--5----7--5----7--5----|
E|-5----------3----5--3-------3----|

We wanna get up and not down and we don't want you to follow us around!
We wanna get up and not down don't be around, be around, be around!
We wanna get up and not down it's a creation so listen to the sound!
We wanna get up and not down don't be around, be around, be around!

e|-5--5--5---5---|
B|-5--5--5---5---|
G|-6--6--6---6---|  -- 8x
D|-----------7---|
A|-----------7---|
E|---------------|


RIFF:

   A5          B5  C5 D5             G5    E5                C5    A5       E5 C5
e|---------------------------------------------------------------------------------|
B|---------------------------------------------------------------------------------|
G|---------------------------------------------------------------------------------|
D|-7-7-7-7-7-7-9-9-10/12-12-12-12-12-12-12-14-14-14-14-14-14-10-10-7--------9--10--|
A|-7-7-7-7-7-7-9-9-10/12-12-12-12-12-10-10-14-14-14-14-14-14-10-10-7--------7--10--|
E|-5-5-5-5-5-5-7-7-8-/10-10-10-10-10-10-10-12-12-12-12-12-12-8--8--5--------7--8---|

   A5          B5  C5 D5             G5    E5                C5    A5       E5
e|--------------------------------------------------------------------------------|
B|--------------------------------------------------------------------------------|
G|--------------------------------------------------------------------------------|
D|-7-7-7-7-7-7-9-9-10/12-12-12-12-12-12-12-14-14-14-14-14-14-10-10-7--------9-----|
A|-7-7-7-7-7-7-9-9-10/12-12-12-12-12-10-10-14-14-14-14-14-14-10-10-7--------7-----|
E|-5-5-5-5-5-5-7-7-8-/10-10-10-10-10-10-10-12-12-12-12-12-12-8--8--5--------7-----|

Jump, jump...
   A5          B5  C5 D5             G5    E5                C5    A5       E5 C5
e|---------------------------------------------------------------------------------|
B|---------------------------------------------------------------------------------|
G|---------------------------------------------------------------------------------|
D|-7-7-7-7-7-7-9-9-10/12-12-12-12-12-12-12-14-14-14-14-14-14-10-10-7--------9--10--|
A|-7-7-7-7-7-7-9-9-10/12-12-12-12-12-10-10-14-14-14-14-14-14-10-10-7--------7--10--|
E|-5-5-5-5-5-5-7-7-8-/10-10-10-10-10-10-10-12-12-12-12-12-12-8--8--5--------7--8---|

   A5          B5  C5 D5             G5    E5                C5    A5
e|--------------------------------------------------------------------------|
B|--------------------------------------------------------------------------|
G|--------------------------------------------------------------------------|
D|-7-7-7-7-7-7-9-9-10/12-12-12-12-12-12-12-14-14-14-14-14-14-10-10-7--------|
A|-7-7-7-7-7-7-9-9-10/12-12-12-12-12-10-10-14-14-14-14-14-14-10-10-7--------|
E|-5-5-5-5-5-5-7-7-8-/10-10-10-10-10-10-10-12-12-12-12-12-12-8--8--5--------|


BRIDGE:
Check it up some!

Z delayem:
e|----------------------|
B|----------------------|
G|----------------------|
D|-777777-...-777777...-|
A|-7----------7---------|
E|-5----------5---------|

e|-8p7p5h7-7-7-|
B|-------------|
G|-------------|  -- 6x
D|-------------|
A|-------------|
E|-------------|

e|-8p7p5-5----|
B|-------5----|
G|------------|
D|------------|
A|------------|
E|------------|
         w


OUTRO RIFF:

Get up, get up no time to get stuck it's time to go and not break this up
Everyday suffering and endless pain, strange fears are driving you insane
Living by the never ending rules we play, is that what we got the price we wanna pay
Kicking and kicking in the name of the law, a knife in my back I was never really sure

   A5          B5  C5 D5             G5    E5                C5    A5       E5 C5
e|---------------------------------------------------------------------------------|
B|---------------------------------------------------------------------------------|
G|---------------------------------------------------------------------------------|
D|-7-7-7-7-7-7-9-9-10/12-12-12-12-12-12-12-14-14-14-14-14-14-10-10-7--------9--10--|
A|-7-7-7-7-7-7-9-9-10/12-12-12-12-12-10-10-14-14-14-14-14-14-10-10-7--------7--10--|
E|-5-5-5-5-5-5-7-7-8-/10-10-10-10-10-10-10-12-12-12-12-12-12-8--8--5--------7--8---|

   A5          B5  C5 D5             G5    E5                C5    A5       E5
e|--------------------------------------------------------------------------------|
B|--------------------------------------------------------------------------------|
G|--------------------------------------------------------------------------------|
D|-7-7-7-7-7-7-9-9-10/12-12-12-12-12-12-12-14-14-14-14-14-14-10-10-7--------9-----|
A|-7-7-7-7-7-7-9-9-10/12-12-12-12-12-10-10-14-14-14-14-14-14-10-10-7--------7-----|
E|-5-5-5-5-5-5-7-7-8-/10-10-10-10-10-10-10-12-12-12-12-12-12-8--8--5--------7-----|

   A5          B5  C5 D5             G5    E5                C5    A5       E5 C5
e|---------------------------------------------------------------------------------|
B|---------------------------------------------------------------------------------|
G|---------------------------------------------------------------------------------|
D|-7-7-7-7-7-7-9-9-10/12-12-12-12-12-12-12-14-14-14-14-14-14-10-10-7--------9--10--|
A|-7-7-7-7-7-7-9-9-10/12-12-12-12-12-10-10-14-14-14-14-14-14-10-10-7--------7--10--|
E|-5-5-5-5-5-5-7-7-8-/10-10-10-10-10-10-10-12-12-12-12-12-12-8--8--5--------7--8---|

   A5          B5  C5 D5             G5    E5                C5    A5
e|--------------------------------------------------------------------------|
B|--------------------------------------------------------------------------|
G|--------------------------------------------------------------------------|
D|-7-7-7-7-7-7-9-9-10/12-12-12-12-12-12-12-14-14-14-14-14-14-10-10-7--------|
A|-7-7-7-7-7-7-9-9-10/12-12-12-12-12-10-10-14-14-14-14-14-14-10-10-7--------|
E|-5-5-5-5-5-5-7-7-8-/10-10-10-10-10-10-10-12-12-12-12-12-12-8--8--5--------|
Добавлено: 01.05.2012
Другие материалы по этой песне:
  • Аккорды и текст

Страница создана 01.05.2012
http://primanota.ru/elvis-jackson/get-up-chords.htm
Привет, Гость.
Предлагаем пройти революционный курс по гитаре.
Подарок от PrimaNota.Ru, забирай!