PrimaNota.ru - самый крупный в мире бесплатный архив песенных текстов, аккордов, табулатур и нот


Elvis Depressedly - U Angel U - таба, видео

Регистрация Запомнить меня
Войти через:  Facebook Google Twitter Vk Yandex Mail.ru

Elvis Depressedly - U Angel U - таба, видео

Печатать
Просмотров: 176
u angel u - Elvis Depressedly

off of "mickey's dead"

tab by neil

Main Riff:
|---------------------------------------------|
|-7----------7----------7----------7----------|
|---8---6-8----8---6-8----8---6-8----8---6-8--|
|-----9----------9----------9----------9------|
|---------------------------------------------|
|---------------------------------------------|


|--------------------------------------------|
|-9----------9----------9----------9---------|
|---8---6-8----8---6-8----8---6-8----8---6-8-|
|-----9----------9----------9----------9-----|
|--------------------------------------------|
|--------------------------------------------|

In the interlude parts he just plays each chord a couple times each and holds them out:

|-------------------|
|-7--------9--------|
|-8--------8--------|
|-9--------9--------|
|-------------------|
|-------------------|
Добавлено: 20.07.2015
Другие материалы по этой песне:
  • Аккорды и текст

Страница создана 20.07.2015
http://primanota.ru/elvis-depressedly/u-angel-u-chords.htm
Привет, Гость.
Предлагаем пройти революционный курс по гитаре.
Подарок от PrimaNota.Ru, забирай!