PrimaNota.ru - самый крупный в мире бесплатный архив песенных текстов, аккордов, табулатур и нот


Elvis Depressedly - Nmss - таба, видео

Регистрация Запомнить меня
Войти через:  Facebook Google Twitter Vk Yandex Mail.ru

Elvis Depressedly - Nmss - таба, видео

Печатать
Просмотров: 126
Уроки эстрадного вокала в Санкт-Петербурге
-------------------------------------------------------------------------------
                             N.M.S.S. - Elvis Depressedly
-------------------------------------------------------------------------------

Tuning: Standard

e|------------------------------|--|---------------------------|--|
B|------------------------------|--|---------------------------|--|
G|------------------------------|--|---------------------------|--|
D|---0--------------0------0----|x2|---0---0---0---0-----------|x2|
A|-----4-0------------0------0--|--|---------5---7-------------|--|
E|-5--------------3------3------|--|-7---7------------3--------|--|
 |                                                                |
G|------------------------------|--|---------------------------|--|
D|------------------------------|x2|---------------------------|--|
A|-7/9\7-------5-----5----------|--|---------------------------|--|
E|---------5h7----3----------3--|--|-7---7---3---3---5-----0-2-|--|

cello part:
e|---------------------|---------------------------|----------------------|---------------------|
B|---------------------|---------------------------|----------------------|---------------------|
G|---------------------|---------------------------|----------------------|---------------------|
D|---------------------|------------2/-4---4/-2----|----------------------|---------------------|
A|-5-4-----------------|-5-4-----------------------|-5-4------------------|-5-4--------5--------|
E|------5----5--7------|------5--------------------|------5-----5--7------|------5--------------|
                                                                                       ^
                                                                          this is one octave below this note

this might be a guitar, it plays during the instrumental parts:
e|-17--17--17--17--17--17--17--17--14--14--14--14--14--14--14--14---|
B|------------------------------------------------------------------|
G|------------------------------------------------------------------|
D|------------------------------------------------------------------|
A|------------------------------------------------------------------|
E|------------------------------------------------------------------|





************************************

| /   slide up
| \   slide down
| h   hammer-on
| p   pull-off
| ~   vibrato
| +   harmonic
| x   Mute note
| b   Bend
| pb  Pre-bend
| br  Bend release
| pbr Pre-bend release
| brb Bend release bend

************************************
Добавлено: 08.10.2015
Другие материалы по этой песне:
  • Аккорды и текст

Страница создана 08.10.2015
http://primanota.ru/elvis-depressedly/nmss-chords.htm
Привет, Гость.
Предлагаем пройти революционный курс по гитаре.
Подарок от PrimaNota.Ru, забирай!